  0
SECTION
  2
HEADER
  9
$ACADVER
  1
AC1009
  9
$INSBASE
 10
0.0
 20
0.0
 30
0.0
  9
$EXTMIN
 10
0.0
 20
0.0
 30
0.0
  9
$EXTMAX
 10
0.0
 20
0.0
 30
0.0
  0
ENDSEC
  0
SECTION
  2
TABLES
  0
TABLE
  2
VPORT
 70
0
  0
ENDTAB
  0
TABLE
  2
LTYPE
 70
1
  0
LTYPE
  2
CONTINUOUS
 70
0
  3
Solid line
 72
65
 73
0
 40
0.0
  0
ENDTAB
  0
TABLE
  2
LAYER
 70
1
  0
LAYER
  2
0
 70
64
 62
7
  6
continuous
  0
ENDTAB
  0
TABLE
  2
STYLE
 70
1
  0
STYLE
  2
STANDARD
 70
0
 40
0
 41
1.0
 50
0.0
 71
0
 42
1
 3
ARIAL.TTF
 4

  0
ENDTAB
  0
TABLE
  2
VIEW
 70
0
  0
ENDTAB
  0
ENDSEC
  0
SECTION
  2
BLOCKS
  0
BLOCK
  8
0
  2
FILLET003
 70
0
 10
0.0
 20
0.0
 30
0.0
  3
FILLET003
  0
LINE
  8
0
 62
0
 10
-2.500000000000001
 20
28.0
 30
0.0
 11
2.5000000000000018
 21
28.0
 31
0.0
  0
ARC
  8
0
 62
0
 10
-2.500000000000001
 20
23.0
 30
0.0
 40
5.0
 50
90.0
 51
-180.0
  0
ARC
  8
0
 62
0
 10
2.500000000000001
 20
23.0
 30
0.0
 40
5.0
 50
-0.0
 51
90.0
  0
LINE
  8
0
 62
0
 10
-7.5
 20
-17.0
 30
0.0
 11
-7.5
 21
23.0
 31
0.0
  0
LINE
  8
0
 62
0
 10
7.499999999999999
 20
23.000000000000007
 30
0.0
 11
7.499999999999999
 21
-17.0
 31
0.0
  0
LINE
  8
0
 62
0
 10
-6.0
 20
-17.0
 30
0.0
 11
-7.5
 21
-17.0
 31
0.0
  0
LINE
  8
0
 62
0
 10
7.499999999999999
 20
-17.0
 30
0.0
 11
6.0
 21
-17.0
 31
0.0
  0
LINE
  8
0
 62
0
 10
-6.0
 20
-94.92893218813455
 30
0.0
 11
-6.0
 21
-17.0
 31
0.0
  0
LINE
  8
0
 62
0
 10
6.0
 20
-17.0
 30
0.0
 11
6.0
 21
-94.92893218813455
 31
0.0
  0
ARC
  8
0
 62
0
 10
-1.0
 20
-94.92893218813454
 30
0.0
 40
5.0
 50
-180.0
 51
-135.00000000000006
  0
ARC
  8
0
 62
0
 10
1.0
 20
-94.92893218813455
 30
0.0
 40
5.0
 50
-45.000000000000014
 51
-0.0
  0
LINE
  8
0
 62
0
 10
-1.0
 20
-102.0
 30
0.0
 11
-4.535533905932736
 21
-98.46446609406728
 31
0.0
  0
LINE
  8
0
 62
0
 10
4.535533905932731
 20
-98.46446609406728
 30
0.0
 11
1.0
 21
-102.0
 31
0.0
  0
LINE
  8
0
 62
0
 10
1.0
 20
-102.00000000000001
 30
0.0
 11
-1.0
 21
-102.00000000000001
 31
0.0
  0
CIRCLE
  8
0
 62
0
 10
0.0
 20
20.0
 30
0.0
 40
2.0
  0
CIRCLE
  8
0
 62
0
 10
0.0
 20
0.0
 30
0.0
 40
2.0
  0
ENDBLK
  0
ENDSEC
  0
SECTION
  2
ENTITIES
  0
INSERT
  2
FILLET003
  8
0
 62
0
 10
0.0
 20
0.0
 30
0.0
  0
ENDSEC
  0
EOF
