999
dxfrw 0.6.3
  0
SECTION
  2
HEADER
  9
$ACADVER
  1
AC1021
  9
$DWGCODEPAGE
  3
ANSI_1252
  9
$INSBASE
 10
0
 20
0
 30
0
  9
$EXTMIN
 10
1691.649877136032
 20
302.6786163865797
 30
0
  9
$EXTMAX
 10
4191.649877136033
 20
2802.678616386579
 30
0
  9
$LIMMIN
 10
0
 20
0
  9
$LIMMAX
 10
420
 20
297
  9
$ORTHOMODE
 70
    1
  9
$REGENMODE
 70
    1
  9
$FILLMODE
 70
    1
  9
$QTEXTMODE
 70
    0
  9
$MIRRTEXT
 70
    0
  9
$LTSCALE
 40
1
  9
$ATTMODE
 70
    1
  9
$TEXTSIZE
 40
2.5
  9
$TRACEWID
 40
1
  9
$TEXTSTYLE
  7
Standard
  9
$CLAYER
  8
0
  9
$CELTYPE
  6
ByLayer
  9
$CECOLOR
 62
  256
  9
$CELTSCALE
 40
1
  9
$DISPSILH
 70
    0
  9
$DIMSCALE
 40
1
  9
$DIMASZ
 40
2.5
  9
$DIMEXO
 40
0.625
  9
$DIMDLI
 40
3.75
  9
$DIMRND
 40
0
  9
$DIMDLE
 40
0
  9
$DIMEXE
 40
1.25
  9
$DIMTP
 40
0
  9
$DIMTM
 40
0
  9
$DIMTXT
 40
2.5
  9
$DIMCEN
 40
2.5
  9
$DIMTSZ
 40
0
  9
$DIMTOL
 70
    0
  9
$DIMLIM
 70
    0
  9
$DIMTIH
 70
    0
  9
$DIMTOH
 70
    0
  9
$DIMSE1
 70
    0
  9
$DIMSE2
 70
    0
  9
$DIMTAD
 70
    1
  9
$DIMZIN
 70
    8
  9
$DIMBLK
  1

  9
$DIMASO
 70
    1
  9
$DIMSHO
 70
    1
  9
$DIMPOST
  1

  9
$DIMAPOST
  1

  9
$DIMALT
 70
    0
  9
$DIMALTD
 70
    3
  9
$DIMALTF
 40
0.03937007874016
  9
$DIMLFAC
 40
1
  9
$DIMTOFL
 70
    1
  9
$DIMTVP
 40
0
  9
$DIMTIX
 70
    0
  9
$DIMSOXD
 70
    0
  9
$DIMSAH
 70
    0
  9
$DIMBLK1
  1

  9
$DIMBLK2
  1

  9
$DIMSTYLE
  2
ISO-25
  9
$DIMCLRD
 70
    0
  9
$DIMCLRE
 70
    0
  9
$DIMCLRT
 70
    0
  9
$DIMTFAC
 40
1
  9
$DIMGAP
 40
0.625
  9
$DIMJUST
 70
    0
  9
$DIMSD1
 70
    0
  9
$DIMSD2
 70
    0
  9
$DIMTOLJ
 70
    0
  9
$DIMTZIN
 70
    8
  9
$DIMALTZ
 70
    0
  9
$DIMALTTZ
 70
    0
  9
$DIMUPT
 70
    0
  9
$DIMDEC
 70
    2
  9
$DIMTDEC
 70
    2
  9
$DIMALTU
 70
    2
  9
$DIMALTTD
 70
    3
  9
$DIMTXSTY
  7
Standard
  9
$DIMAUNIT
 70
    0
  9
$DIMADEC
 70
    0
  9
$DIMALTRND
 40
0
  9
$DIMAZIN
 70
    0
  9
$DIMDSEP
 70
   44
  9
$DIMATFIT
 70
    3
  9
$DIMFRAC
 70
    0
  9
$DIMLDRBLK
  1

  9
$DIMLUNIT
 70
    2
  9
$DIMLWD
 70
   -2
  9
$DIMLWE
 70
   -2
  9
$DIMTMOVE
 70
    0
  9
$DIMFXL
 40
1
  9
$DIMFXLON
 70
    0
  9
$DIMJOGANG
 40
0.7853981633974483
  9
$DIMTFILL
 70
    0
  9
$DIMTFILLCLR
 70
    0
  9
$DIMARCSYM
 70
    0
  9
$DIMLTYPE
  6

  9
$DIMLTEX1
  6

  9
$DIMLTEX2
  6

  9
$LUNITS
 70
    2
  9
$LUPREC
 70
    4
  9
$SKETCHINC
 40
1
  9
$FILLETRAD
 40
2
  9
$AUNITS
 70
    0
  9
$AUPREC
 70
    0
  9
$MENU
  1
.
  9
$ELEVATION
 40
0
  9
$PELEVATION
 40
0
  9
$THICKNESS
 40
0
  9
$LIMCHECK
 70
    0
  9
$CHAMFERA
 40
0
  9
$CHAMFERB
 40
0
  9
$CHAMFERC
 40
0
  9
$CHAMFERD
 40
0
  9
$SKPOLY
 70
    0
  9
$USRTIMER
 70
    1
  9
$ANGBASE
 50
0
  9
$ANGDIR
 70
    0
  9
$PDMODE
 70
    0
  9
$PDSIZE
 40
0
  9
$PLINEWID
 40
0
  9
$SPLFRAME
 70
    0
  9
$SPLINETYPE
 70
    6
  9
$SPLINESEGS
 70
    8
  9
$HANDSEED
  5
20000
  9
$SURFTAB1
 70
    6
  9
$SURFTAB2
 70
    6
  9
$SURFTYPE
 70
    6
  9
$SURFU
 70
    6
  9
$SURFV
 70
    6
  9
$UCSBASE
  2

  9
$UCSNAME
  2

  9
$UCSORG
 10
0
 20
0
 30
0
  9
$UCSXDIR
 10
1
 20
0
 30
0
  9
$UCSYDIR
 10
0
 20
1
 30
0
  9
$UCSORTHOREF
  2

  9
$UCSORTHOVIEW
 70
    0
  9
$UCSORGTOP
 10
0
 20
0
 30
0
  9
$UCSORGBOTTOM
 10
0
 20
0
 30
0
  9
$UCSORGLEFT
 10
0
 20
0
 30
0
  9
$UCSORGRIGHT
 10
0
 20
0
 30
0
  9
$UCSORGFRONT
 10
0
 20
0
 30
0
  9
$UCSORGBACK
 10
0
 20
0
 30
0
  9
$PUCSBASE
  2

  9
$PUCSNAME
  2

  9
$PUCSORG
 10
0
 20
0
 30
0
  9
$PUCSXDIR
 10
1
 20
0
 30
0
  9
$PUCSYDIR
 10
0
 20
1
 30
0
  9
$PUCSORTHOREF
  2

  9
$PUCSORTHOVIEW
 70
    0
  9
$PUCSORGTOP
 10
0
 20
0
 30
0
  9
$PUCSORGBOTTOM
 10
0
 20
0
 30
0
  9
$PUCSORGLEFT
 10
0
 20
0
 30
0
  9
$PUCSORGRIGHT
 10
0
 20
0
 30
0
  9
$PUCSORGFRONT
 10
0
 20
0
 30
0
  9
$PUCSORGBACK
 10
0
 20
0
 30
0
  9
$USERI1
 70
    0
  9
$USERI2
 70
    0
  9
$USERI3
 70
    0
  9
$USERI4
 70
    0
  9
$USERI5
 70
    0
  9
$USERR1
 40
0
  9
$USERR2
 40
0
  9
$USERR3
 40
0
  9
$USERR4
 40
0
  9
$USERR5
 40
0
  9
$WORLDVIEW
 70
    1
  9
$SHADEDGE
 70
    3
  9
$SHADEDIF
 70
   70
  9
$TILEMODE
 70
    1
  9
$MAXACTVP
 70
   64
  9
$PINSBASE
 10
0
 20
0
 30
0
  9
$PLIMCHECK
 70
    0
  9
$PEXTMIN
 10
0
 20
0
 30
0
  9
$PEXTMAX
 10
0
 20
0
 30
0
  9
$GRIDMODE
 70
    1
  9
$SNAPSTYLE
 70
    0
  9
$PLIMMIN
 10
0
 20
0
  9
$PLIMMAX
 10
12
 20
9
  9
$UNITMODE
 70
    0
  9
$VISRETAIN
 70
    1
  9
$PLINEGEN
 70
    0
  9
$PSLTSCALE
 70
    1
  9
$TREEDEPTH
 70
 3020
  9
$CMLSTYLE
  2
Standard
  9
$CMLJUST
 70
    0
  9
$CMLSCALE
 40
20
  9
$PROXYGRAPHICS
 70
    1
  9
$MEASUREMENT
 70
    1
  9
$CELWEIGHT
370
   -1
  9
$ENDCAPS
280
    0
  9
$JOINSTYLE
280
    0
  9
$LWDISPLAY
290
    0
  9
$INSUNITS
 70
    4
  9
$HYPERLINKBASE
  1

  9
$STYLESHEET
  1

  9
$XEDIT
290
    1
  9
$CEPSNTYPE
380
    0
  9
$PSTYLEMODE
290
    1
  9
$EXTNAMES
290
    1
  9
$PSVPSCALE
 40
0
  9
$OLESTARTUP
290
    0
  9
$SORTENTS
280
  127
  9
$INDEXCTL
280
    0
  9
$HIDETEXT
280
    1
  9
$XCLIPFRAME
290
    2
  9
$HALOGAP
280
    0
  9
$OBSCOLOR
 70
  257
  9
$OBSLTYPE
280
    0
  9
$INTERSECTIONDISPLAY
280
    0
  9
$INTERSECTIONCOLOR
 70
  257
  9
$DIMASSOC
280
    2
  9
$PROJECTNAME
  1

  9
$CAMERADISPLAY
290
    0
  9
$LENSLENGTH
 40
50
  9
$CAMERAHEIGHT
 40
0
  9
$STEPSPERSEC
 40
2
  9
$STEPSIZE
 40
6
  9
$3DDWFPREC
 40
2
  9
$PSOLWIDTH
 40
5
  9
$PSOLHEIGHT
 40
80
  9
$LOFTANG1
 40
1.570796326794896
  9
$LOFTANG2
 40
1.570796326794896
  9
$LOFTMAG1
 40
0
  9
$LOFTMAG2
 40
0
  9
$LOFTPARAM
 70
    7
  9
$LOFTNORMALS
280
    1
  9
$LATITUDE
 40
37.795
  9
$LONGITUDE
 40
-122.394
  9
$NORTHDIRECTION
 40
0
  9
$TIMEZONE
 70
-8000
  9
$LIGHTGLYPHDISPLAY
280
    1
  9
$TILEMODELIGHTSYNCH
280
    1
  9
$SOLIDHIST
280
    0
  9
$SHOWHIST
280
    1
  9
$DWFFRAME
280
    2
  9
$DGNFRAME
280
    0
  9
$REALWORLDSCALE
290
    1
  9
$INTERFERECOLOR
 62
    1
  9
$CSHADOW
280
    0
  9
$SHADOWPLANELOCATION
 40
0
  0
ENDSEC
  0
SECTION
  2
CLASSES
  0
ENDSEC
  0
SECTION
  2
TABLES
  0
TABLE
  2
VPORT
  5
8
330
0
100
AcDbSymbolTable
 70
    1
  0
VPORT
  5
31
330
2
100
AcDbSymbolTableRecord
100
AcDbViewportTableRecord
  2
*ACTIVE
 70
    0
 10
0
 20
0
 11
1
 21
1
 12
1358.636150711685
 22
1602.201174928906
 13
0
 23
0
 14
10
 24
10
 15
10
 25
10
 16
0
 26
0
 36
1
 17
0
 27
0
 37
0
 40
3128.288279789931
 41
0.6618004866180048
 42
50
 43
0
 44
0
 50
0
 51
0
 71
    0
 72
  100
 73
    1
 74
    3
 75
    0
 76
    1
 77
    0
 78
    0
281
    0
 65
    1
110
0
120
0
130
0
111
1
121
0
131
0
112
0
122
1
132
0
 79
    0
146
0
348
10020
 60
    7
 61
    5
292
1
282
    1
141
0
142
0
 63
  250
421
3358443
  0
ENDTAB
  0
TABLE
  2
LTYPE
  5
5
330
0
100
AcDbSymbolTable
 70
    4
  0
LTYPE
  5
14
330
5
100
AcDbSymbolTableRecord
100
AcDbLinetypeTableRecord
  2
ByBlock
 70
    0
  3

 72
   65
 73
    0
 40
0
  0
LTYPE
  5
15
330
5
100
AcDbSymbolTableRecord
100
AcDbLinetypeTableRecord
  2
ByLayer
 70
    0
  3

 72
   65
 73
    0
 40
0
  0
LTYPE
  5
16
330
5
100
AcDbSymbolTableRecord
100
AcDbLinetypeTableRecord
  2
Continuous
 70
    0
  3
Solid line
 72
   65
 73
    0
 40
0
  0
LTYPE
  5
32
330
5
100
AcDbSymbolTableRecord
100
AcDbLinetypeTableRecord
  2
DOT
 70
    0
  3
Dot . . . . . . . . . . . . . . . . . . . . . .
 72
   65
 73
    2
 40
6.35
 49
0
 74
    0
 49
-6.35
 74
    0
  0
LTYPE
  5
33
330
5
100
AcDbSymbolTableRecord
100
AcDbLinetypeTableRecord
  2
DOTTINY
 70
    0
  3
Dot (.15x) .....................................
 72
   65
 73
    2
 40
0.9525
 49
0
 74
    0
 49
-0.9525
 74
    0
  0
LTYPE
  5
34
330
5
100
AcDbSymbolTableRecord
100
AcDbLinetypeTableRecord
  2
DOT2
 70
    0
  3
Dot (.5x) .....................................
 72
   65
 73
    2
 40
3.175
 49
0
 74
    0
 49
-3.175
 74
    0
  0
LTYPE
  5
35
330
5
100
AcDbSymbolTableRecord
100
AcDbLinetypeTableRecord
  2
DOTX2
 70
    0
  3
Dot (2x) .  .  .  .  .  .  .  .  .  .  .  .  .
 72
   65
 73
    2
 40
12.7
 49
0
 74
    0
 49
-12.7
 74
    0
  0
LTYPE
  5
36
330
5
100
AcDbSymbolTableRecord
100
AcDbLinetypeTableRecord
  2
DASHED
 70
    0
  3
Dashed _ _ _ _ _ _ _ _ _ _ _ _ _ _ _ _ _
 72
   65
 73
    2
 40
19.05
 49
12.7
 74
    0
 49
-6.35
 74
    0
  0
LTYPE
  5
37
330
5
100
AcDbSymbolTableRecord
100
AcDbLinetypeTableRecord
  2
DASHEDTINY
 70
    0
  3
Dashed (.15x) _ _ _ _ _ _ _ _ _ _ _ _ _ _ _ _ _
 72
   65
 73
    2
 40
2.8575
 49
1.905
 74
    0
 49
-0.9525
 74
    0
  0
LTYPE
  5
38
330
5
100
AcDbSymbolTableRecord
100
AcDbLinetypeTableRecord
  2
DASHED2
 70
    0
  3
Dashed (.5x) _ _ _ _ _ _ _ _ _ _ _ _ _ _ _ _ _
 72
   65
 73
    2
 40
9.524999999999999
 49
6.35
 74
    0
 49
-3.175
 74
    0
  0
LTYPE
  5
39
330
5
100
AcDbSymbolTableRecord
100
AcDbLinetypeTableRecord
  2
DASHEDX2
 70
    0
  3
Dashed (2x) ____  ____  ____  ____  ____  ___
 72
   65
 73
    2
 40
38.09999999999999
 49
25.4
 74
    0
 49
-12.7
 74
    0
  0
LTYPE
  5
3A
330
5
100
AcDbSymbolTableRecord
100
AcDbLinetypeTableRecord
  2
DASHDOT
 70
    0
  3
Dash dot __ . __ . __ . __ . __ . __ . __ . __
 72
   65
 73
    4
 40
25.4
 49
12.7
 74
    0
 49
-6.35
 74
    0
 49
0
 74
    0
 49
-6.35
 74
    0
  0
LTYPE
  5
3B
330
5
100
AcDbSymbolTableRecord
100
AcDbLinetypeTableRecord
  2
DASHDOTTINY
 70
    0
  3
Dash dot (.15x) _._._._._._._._._._._._._._._.
 72
   65
 73
    4
 40
3.81
 49
1.905
 74
    0
 49
-0.9525
 74
    0
 49
0
 74
    0
 49
-0.9525
 74
    0
  0
LTYPE
  5
3C
330
5
100
AcDbSymbolTableRecord
100
AcDbLinetypeTableRecord
  2
DASHDOT2
 70
    0
  3
Dash dot (.5x) _._._._._._._._._._._._._._._.
 72
   65
 73
    4
 40
12.7
 49
6.35
 74
    0
 49
-3.175
 74
    0
 49
0
 74
    0
 49
-3.175
 74
    0
  0
LTYPE
  5
3D
330
5
100
AcDbSymbolTableRecord
100
AcDbLinetypeTableRecord
  2
DASHDOTX2
 70
    0
  3
Dash dot (2x) ____  .  ____  .  ____  .  ___
 72
   65
 73
    4
 40
50.8
 49
25.4
 74
    0
 49
-12.7
 74
    0
 49
0
 74
    0
 49
-12.7
 74
    0
  0
LTYPE
  5
3E
330
5
100
AcDbSymbolTableRecord
100
AcDbLinetypeTableRecord
  2
DIVIDE
 70
    0
  3
Divide ____ . . ____ . . ____ . . ____ . . ____
 72
   65
 73
    6
 40
31.75
 49
12.7
 74
    0
 49
-6.35
 74
    0
 49
0
 74
    0
 49
-6.35
 74
    0
 49
0
 74
    0
 49
-6.35
 74
    0
  0
LTYPE
  5
3F
330
5
100
AcDbSymbolTableRecord
100
AcDbLinetypeTableRecord
  2
DIVIDETINY
 70
    0
  3
Divide (.15x) __..__..__..__..__..__..__..__.._
 72
   65
 73
    6
 40
4.7625
 49
1.905
 74
    0
 49
-0.9525
 74
    0
 49
0
 74
    0
 49
-0.9525
 74
    0
 49
0
 74
    0
 49
-0.9525
 74
    0
  0
LTYPE
  5
40
330
5
100
AcDbSymbolTableRecord
100
AcDbLinetypeTableRecord
  2
DIVIDE2
 70
    0
  3
Divide (.5x) __..__..__..__..__..__..__..__.._
 72
   65
 73
    6
 40
15.875
 49
6.35
 74
    0
 49
-3.175
 74
    0
 49
0
 74
    0
 49
-3.175
 74
    0
 49
0
 74
    0
 49
-3.175
 74
    0
  0
LTYPE
  5
41
330
5
100
AcDbSymbolTableRecord
100
AcDbLinetypeTableRecord
  2
DIVIDEX2
 70
    0
  3
Divide (2x) ________  .  .  ________  .  .  _
 72
   65
 73
    6
 40
63.5
 49
25.4
 74
    0
 49
-12.7
 74
    0
 49
0
 74
    0
 49
-12.7
 74
    0
 49
0
 74
    0
 49
-12.7
 74
    0
  0
LTYPE
  5
42
330
5
100
AcDbSymbolTableRecord
100
AcDbLinetypeTableRecord
  2
BORDER
 70
    0
  3
Border __ __ . __ __ . __ __ . __ __ . __ __ .
 72
   65
 73
    6
 40
44.45
 49
12.7
 74
    0
 49
-6.35
 74
    0
 49
12.7
 74
    0
 49
-6.35
 74
    0
 49
0
 74
    0
 49
-6.35
 74
    0
  0
LTYPE
  5
43
330
5
100
AcDbSymbolTableRecord
100
AcDbLinetypeTableRecord
  2
BORDERTINY
 70
    0
  3
Border (.15x) __.__.__.__.__.__.__.__.__.__.__.
 72
   65
 73
    6
 40
6.6675
 49
1.905
 74
    0
 49
-0.9525
 74
    0
 49
1.905
 74
    0
 49
-0.9525
 74
    0
 49
0
 74
    0
 49
-0.9525
 74
    0
  0
LTYPE
  5
44
330
5
100
AcDbSymbolTableRecord
100
AcDbLinetypeTableRecord
  2
BORDER2
 70
    0
  3
Border (.5x) __.__.__.__.__.__.__.__.__.__.__.
 72
   65
 73
    6
 40
22.225
 49
6.35
 74
    0
 49
-3.175
 74
    0
 49
6.35
 74
    0
 49
-3.175
 74
    0
 49
0
 74
    0
 49
-3.175
 74
    0
  0
LTYPE
  5
45
330
5
100
AcDbSymbolTableRecord
100
AcDbLinetypeTableRecord
  2
BORDERX2
 70
    0
  3
Border (2x) ____  ____  .  ____  ____  .  ___
 72
   65
 73
    6
 40
88.89999999999999
 49
25.4
 74
    0
 49
-12.7
 74
    0
 49
25.4
 74
    0
 49
-12.7
 74
    0
 49
0
 74
    0
 49
-12.7
 74
    0
  0
LTYPE
  5
46
330
5
100
AcDbSymbolTableRecord
100
AcDbLinetypeTableRecord
  2
CENTER
 70
    0
  3
Center ____ _ ____ _ ____ _ ____ _ ____ _ ____
 72
   65
 73
    4
 40
50.8
 49
31.75
 74
    0
 49
-6.35
 74
    0
 49
6.35
 74
    0
 49
-6.35
 74
    0
  0
LTYPE
  5
47
330
5
100
AcDbSymbolTableRecord
100
AcDbLinetypeTableRecord
  2
CENTERTINY
 70
    0
  3
Center (.15x) ___ _ ___ _ ___ _ ___ _ ___ _ ___
 72
   65
 73
    4
 40
7.619999999999999
 49
4.7625
 74
    0
 49
-0.9525
 74
    0
 49
0.9525
 74
    0
 49
-0.9525
 74
    0
  0
LTYPE
  5
48
330
5
100
AcDbSymbolTableRecord
100
AcDbLinetypeTableRecord
  2
CENTER2
 70
    0
  3
Center (.5x) ___ _ ___ _ ___ _ ___ _ ___ _ ___
 72
   65
 73
    4
 40
28.575
 49
19.05
 74
    0
 49
-3.175
 74
    0
 49
3.175
 74
    0
 49
-3.175
 74
    0
  0
LTYPE
  5
49
330
5
100
AcDbSymbolTableRecord
100
AcDbLinetypeTableRecord
  2
CENTERX2
 70
    0
  3
Center (2x) ________  __  ________  __  _____
 72
   65
 73
    4
 40
101.6
 49
63.5
 74
    0
 49
-12.7
 74
    0
 49
12.7
 74
    0
 49
-12.7
 74
    0
  0
ENDTAB
  0
TABLE
  2
LAYER
  5
2
330
0
100
AcDbSymbolTable
 70
    1
  0
LAYER
  5
10
330
2
100
AcDbSymbolTableRecord
100
AcDbLayerTableRecord
  2
0
 70
    0
 62
    7
  6
CONTINUOUS
370
   -3
390
F
  0
LAYER
  5
4A
330
2
100
AcDbSymbolTableRecord
100
AcDbLayerTableRecord
  2
Defpoints
 70
    0
 62
    7
  6
CONTINUOUS
290
0
370
   -3
390
F
  0
ENDTAB
  0
TABLE
  2
STYLE
  5
3
330
0
100
AcDbSymbolTable
 70
    3
  0
STYLE
  5
4B
330
2
100
AcDbSymbolTableRecord
100
AcDbTextStyleTableRecord
  2
standard
 70
    0
 40
0
 41
1
 50
0
 71
    0
 42
1
  3
standard
  4

  0
ENDTAB
  0
TABLE
  2
VIEW
  5
6
330
0
100
AcDbSymbolTable
 70
    0
  0
ENDTAB
  0
TABLE
  2
UCS
  5
7
330
0
100
AcDbSymbolTable
 70
    0
  0
ENDTAB
  0
TABLE
  2
APPID
  5
9
330
0
100
AcDbSymbolTable
 70
    1
  0
APPID
  5
12
330
9
100
AcDbSymbolTableRecord
100
AcDbRegAppTableRecord
  2
ACAD
 70
    0
  0
APPID
  5
4C
330
9
100
AcDbSymbolTableRecord
100
AcDbRegAppTableRecord
  2
LibreCad
 70
    0
  0
ENDTAB
  0
TABLE
  2
DIMSTYLE
  5
A
330
0
100
AcDbSymbolTable
 70
    1
100
AcDbDimStyleTable
 71
    1
  0
DIMSTYLE
105
4D
330
A
100
AcDbSymbolTableRecord
100
AcDbDimStyleTableRecord
  2
Standard
 70
    0
 40
1
 41
2.5
 42
0.625
 43
0.38
 44
1.25
 45
0
 46
0
 47
0
 48
0
 49
1
140
2.5
141
0.09
142
0
143
25.4
144
1
145
0
146
1
147
0.625
148
0
 71
    0
 72
    0
 73
    0
 74
    1
 75
    0
 76
    0
 77
    0
 78
    8
 79
    0
170
    0
171
    2
172
    0
173
    0
174
    0
175
    0
176
    0
177
    0
178
    0
179
    0
271
    2
272
    4
273
    2
274
    2
275
    0
276
    0
277
    2
278
   44
279
    0
280
    0
281
    0
282
    0
283
    1
284
    0
285
    0
286
    0
288
    0
289
    3
340
Standard
341

371
   -2
372
   -2
  0
ENDTAB
  0
TABLE
  2
BLOCK_RECORD
  5
1
330
0
100
AcDbSymbolTable
 70
    2
  0
BLOCK_RECORD
  5
1F
330
1
100
AcDbSymbolTableRecord
100
AcDbBlockTableRecord
  2
*Model_Space
 70
    0
280
    1
281
    0
  0
BLOCK_RECORD
  5
1E
330
1
100
AcDbSymbolTableRecord
100
AcDbBlockTableRecord
  2
*Paper_Space
 70
    0
280
    1
281
    0
  0
ENDTAB
  0
ENDSEC
  0
SECTION
  2
BLOCKS
  0
BLOCK
  5
20
330
1F
100
AcDbEntity
  8
0
100
AcDbBlockBegin
  2
*Model_Space
 70
    0
 10
0
 20
0
 30
0
  3
*Model_Space
  1

  0
ENDBLK
  5
21
330
1F
100
AcDbEntity
  8
0
100
AcDbBlockEnd
  0
BLOCK
  5
1C
330
1B
100
AcDbEntity
  8
0
100
AcDbBlockBegin
  2
*Paper_Space
 70
    0
 10
0
 20
0
 30
0
  3
*Paper_Space
  1

  0
ENDBLK
  5
1D
330
1F
100
AcDbEntity
  8
0
100
AcDbBlockEnd
  0
ENDSEC
  0
SECTION
  2
ENTITIES
  0
LWPOLYLINE
  5
4E
100
AcDbEntity
  8
0
  6
ByLayer
 62
    2
370
   -1
100
AcDbPolyline
 90
   17
 70
    0
 43
0
 10
3504.178045296344
 20
2464.266303095938
 42
-0.2362172165162109
 10
3518.861505369532
 20
2469.100462991889
 10
3540.582936398446
 20
2465.856209994891
 42
-0.1251869431918724
 10
3547.648883783013
 20
2461.90803904425
 10
3554.045052074327
 20
2455.291464528637
 42
-0.1903886243688782
 10
3555.935404383259
 20
2450.506958235072
 10
3555.935404383259
 20
2437.534370133168
 42
-0.4142135623730571
 10
3548.935404383259
 20
2430.534370133167
 10
3501.344069058106
 20
2430.534370133167
 10
3501.344069058106
 20
2435.895243463841
 42
0.2840394112998941
 10
3500.238758652818
 20
2437.683966619925
 10
3498.874898125619
 20
2438.36614698874
 42
0.1164709921781568
 10
3497.980208530907
 20
2438.577423832654
 10
3496.454349888804
 20
2438.577423832654
 42
-0.414213562373095
 10
3489.454349888803
 20
2445.577423832654
 42
-0.1609736774954622
 10
3491.26206216013
 20
2449.734638820259
 10
3504.005987381325
 20
2464.084371479282
  0
LWPOLYLINE
  5
4F
100
AcDbEntity
  8
0
  6
ByLayer
 62
    2
370
   -1
100
AcDbPolyline
 90
   17
 70
    0
 43
0
 10
3410.808045296345
 20
2464.266303095938
 42
-0.2362172165162107
 10
3425.491505369532
 20
2469.100462991889
 10
3447.212936398445
 20
2465.856209994891
 42
-0.1251869431918724
 10
3454.278883783012
 20
2461.90803904425
 10
3460.675052074327
 20
2455.291464528637
 42
-0.1903886243688782
 10
3462.565404383259
 20
2450.506958235072
 10
3462.565404383259
 20
2437.534370133168
 42
-0.4142135623730571
 10
3455.565404383259
 20
2430.534370133167
 10
3407.974069058107
 20
2430.534370133167
 10
3407.974069058107
 20
2435.895243463841
 42
0.2840394112998941
 10
3406.868758652819
 20
2437.683966619925
 10
3405.504898125619
 20
2438.36614698874
 42
0.1164709921781508
 10
3404.610208530908
 20
2438.577423832654
 10
3403.084349888803
 20
2438.577423832654
 42
-0.414213562373095
 10
3396.084349888803
 20
2445.577423832654
 42
-0.1609736774954622
 10
3397.89206216013
 20
2449.734638820259
 10
3410.635987381325
 20
2464.084371479282
  0
LWPOLYLINE
  5
50
100
AcDbEntity
  8
0
  6
ByLayer
 62
    2
370
   -1
100
AcDbPolyline
 90
   17
 70
    0
 43
0
 10
3317.878045296345
 20
2464.266303095938
 42
-0.2362172165162118
 10
3332.561505369532
 20
2469.100462991889
 10
3354.282936398445
 20
2465.856209994891
 42
-0.1251869431918734
 10
3361.348883783012
 20
2461.90803904425
 10
3367.745052074327
 20
2455.291464528637
 42
-0.1903886243688782
 10
3369.635404383259
 20
2450.506958235072
 10
3369.635404383259
 20
2437.534370133168
 42
-0.4142135623730571
 10
3362.635404383259
 20
2430.534370133167
 10
3315.044069058107
 20
2430.534370133167
 10
3315.044069058107
 20
2435.895243463841
 42
0.284039411299847
 10
3313.938758652818
 20
2437.683966619925
 10
3312.574898125619
 20
2438.36614698874
 42
0.1164709921781447
 10
3311.680208530908
 20
2438.577423832654
 10
3310.154349888803
 20
2438.577423832654
 42
-0.414213562373095
 10
3303.154349888803
 20
2445.577423832654
 42
-0.1609736774954595
 10
3304.96206216013
 20
2449.734638820259
 10
3317.705987381325
 20
2464.084371479282
  0
LWPOLYLINE
  5
51
100
AcDbEntity
  8
0
  6
ByLayer
 62
    2
370
   -1
100
AcDbPolyline
 90
   17
 70
    0
 43
0
 10
3187.478045296345
 20
2464.266303095937
 42
-0.2362172165162098
 10
3202.161505369532
 20
2469.100462991889
 10
3223.882936398445
 20
2465.856209994891
 42
-0.125186943191872
 10
3230.948883783013
 20
2461.90803904425
 10
3237.345052074328
 20
2455.291464528637
 42
-0.1903886243688732
 10
3239.235404383259
 20
2450.506958235072
 10
3239.235404383259
 20
2437.534370133168
 42
-0.4142135623730571
 10
3232.235404383259
 20
2430.534370133167
 10
3184.644069058107
 20
2430.534370133167
 10
3184.644069058107
 20
2435.895243463841
 42
0.2840394112998811
 10
3183.538758652818
 20
2437.683966619925
 10
3182.174898125619
 20
2438.36614698874
 42
0.1164709921781568
 10
3181.280208530907
 20
2438.577423832654
 10
3179.754349888804
 20
2438.577423832654
 42
-0.414213562373095
 10
3172.754349888804
 20
2445.577423832654
 42
-0.1609736774954528
 10
3174.562062160131
 20
2449.734638820259
 10
3187.305987381325
 20
2464.084371479282
  0
LWPOLYLINE
  5
52
100
AcDbEntity
  8
0
  6
ByLayer
 62
    2
370
   -1
100
AcDbPolyline
 90
   17
 70
    0
 43
0
 10
3094.898045296345
 20
2464.266303095938
 42
-0.2362172165162119
 10
3109.581505369533
 20
2469.100462991889
 10
3131.302936398445
 20
2465.856209994891
 42
-0.125186943191872
 10
3138.368883783013
 20
2461.90803904425
 10
3144.765052074327
 20
2455.291464528637
 42
-0.1903886243688806
 10
3146.65540438326
 20
2450.506958235072
 10
3146.65540438326
 20
2437.534370133168
 42
-0.4142135623730571
 10
3139.65540438326
 20
2430.534370133167
 10
3092.064069058107
 20
2430.534370133167
 10
3092.064069058107
 20
2435.895243463841
 42
0.284039411299902
 10
3090.958758652818
 20
2437.683966619925
 10
3089.594898125619
 20
2438.36614698874
 42
0.1164709921781568
 10
3088.700208530907
 20
2438.577423832654
 10
3087.174349888804
 20
2438.577423832654
 42
-0.414213562373095
 10
3080.174349888804
 20
2445.577423832654
 42
-0.1609736774954528
 10
3081.982062160131
 20
2449.734638820259
 10
3094.725987381325
 20
2464.084371479282
  0
LWPOLYLINE
  5
53
100
AcDbEntity
  8
0
  6
ByLayer
 62
    2
370
   -1
100
AcDbPolyline
 90
   17
 70
    0
 43
0
 10
3002.408045296345
 20
2464.266303095938
 42
-0.2362172165162109
 10
3017.091505369533
 20
2469.100462991889
 10
3038.812936398445
 20
2465.856209994891
 42
-0.125186943191872
 10
3045.878883783013
 20
2461.90803904425
 10
3052.275052074328
 20
2455.291464528637
 42
-0.1903886243688782
 10
3054.16540438326
 20
2450.506958235072
 10
3054.16540438326
 20
2437.534370133168
 42
-0.4142135623730571
 10
3047.16540438326
 20
2430.534370133167
 10
2999.574069058107
 20
2430.534370133167
 10
2999.574069058107
 20
2435.895243463841
 42
0.2840394112998941
 10
2998.468758652819
 20
2437.683966619925
 10
2997.104898125619
 20
2438.36614698874
 42
0.1164709921781508
 10
2996.210208530908
 20
2438.577423832654
 10
2994.684349888804
 20
2438.577423832654
 42
-0.414213562373095
 10
2987.684349888804
 20
2445.577423832654
 42
-0.1609736774954622
 10
2989.49206216013
 20
2449.734638820259
 10
3002.235987381326
 20
2464.084371479282
  0
LWPOLYLINE
  5
54
100
AcDbEntity
  8
0
  6
ByLayer
 62
    2
370
   -1
100
AcDbPolyline
 90
   17
 70
    0
 43
0
 10
2843.858045296345
 20
2464.266303095938
 42
-0.2362172165162119
 10
2858.541505369533
 20
2469.100462991889
 10
2880.262936398445
 20
2465.856209994891
 42
-0.125186943191872
 10
2887.328883783013
 20
2461.90803904425
 10
2893.725052074327
 20
2455.291464528637
 42
-0.1903886243688806
 10
2895.61540438326
 20
2450.506958235072
 10
2895.61540438326
 20
2437.534370133168
 42
-0.4142135623730571
 10
2888.615404383259
 20
2430.534370133167
 10
2841.024069058107
 20
2430.534370133167
 10
2841.024069058107
 20
2435.895243463841
 42
0.284039411299902
 10
2839.918758652818
 20
2437.683966619925
 10
2838.554898125619
 20
2438.36614698874
 42
0.1164709921781508
 10
2837.660208530908
 20
2438.577423832654
 10
2836.134349888803
 20
2438.577423832654
 42
-0.414213562373095
 10
2829.134349888804
 20
2445.577423832654
 42
-0.1609736774954594
 10
2830.94206216013
 20
2449.734638820259
 10
2843.685987381325
 20
2464.084371479282
  0
LWPOLYLINE
  5
55
100
AcDbEntity
  8
0
  6
ByLayer
 62
    2
370
   -1
100
AcDbPolyline
 90
   17
 70
    0
 43
0
 10
2751.368045296345
 20
2464.266303095938
 42
-0.2362172165162109
 10
2766.051505369533
 20
2469.100462991889
 10
2787.772936398445
 20
2465.856209994891
 42
-0.125186943191872
 10
2794.838883783013
 20
2461.90803904425
 10
2801.235052074328
 20
2455.291464528637
 42
-0.1903886243688782
 10
2803.12540438326
 20
2450.506958235072
 10
2803.12540438326
 20
2437.534370133168
 42
-0.4142135623730571
 10
2796.12540438326
 20
2430.534370133167
 10
2748.534069058107
 20
2430.534370133167
 10
2748.534069058107
 20
2435.895243463841
 42
0.2840394112998811
 10
2747.428758652818
 20
2437.683966619925
 10
2746.064898125619
 20
2438.36614698874
 42
0.1164709921781508
 10
2745.170208530908
 20
2438.577423832654
 10
2743.644349888804
 20
2438.577423832654
 42
-0.414213562373095
 10
2736.644349888804
 20
2445.577423832654
 42
-0.1609736774954622
 10
2738.45206216013
 20
2449.734638820259
 10
2751.195987381326
 20
2464.084371479282
  0
LWPOLYLINE
  5
56
100
AcDbEntity
  8
0
  6
ByLayer
 62
    2
370
   -1
100
AcDbPolyline
 90
   17
 70
    0
 43
0
 10
2658.788045296345
 20
2464.266303095938
 42
-0.2362172165162109
 10
2673.471505369533
 20
2469.100462991889
 10
2695.192936398445
 20
2465.856209994891
 42
-0.125186943191872
 10
2702.258883783013
 20
2461.90803904425
 10
2708.655052074328
 20
2455.291464528637
 42
-0.1903886243688782
 10
2710.54540438326
 20
2450.506958235072
 10
2710.54540438326
 20
2437.534370133168
 42
-0.4142135623730571
 10
2703.54540438326
 20
2430.534370133167
 10
2655.954069058107
 20
2430.534370133167
 10
2655.954069058107
 20
2435.895243463841
 42
0.2840394112998941
 10
2654.848758652819
 20
2437.683966619925
 10
2653.484898125619
 20
2438.36614698874
 42
0.1164709921781508
 10
2652.590208530908
 20
2438.577423832654
 10
2651.064349888804
 20
2438.577423832654
 42
-0.414213562373095
 10
2644.064349888804
 20
2445.577423832654
 42
-0.1609736774954622
 10
2645.87206216013
 20
2449.734638820259
 10
2658.615987381326
 20
2464.084371479282
  0
LWPOLYLINE
  5
57
100
AcDbEntity
  8
0
  6
ByLayer
 62
    2
370
   -1
100
AcDbPolyline
 90
   17
 70
    0
 43
0
 10
2528.388045296345
 20
2464.266303095938
 42
-0.2362172165162109
 10
2543.071505369533
 20
2469.100462991889
 10
2564.792936398446
 20
2465.856209994891
 42
-0.1251869431918724
 10
2571.858883783013
 20
2461.90803904425
 10
2578.255052074327
 20
2455.291464528637
 42
-0.1903886243688806
 10
2580.14540438326
 20
2450.506958235072
 10
2580.14540438326
 20
2437.534370133168
 42
-0.4142135623730571
 10
2573.14540438326
 20
2430.534370133167
 10
2525.554069058107
 20
2430.534370133167
 10
2525.554069058107
 20
2435.895243463841
 42
0.2840394112998811
 10
2524.448758652818
 20
2437.683966619925
 10
2523.084898125619
 20
2438.36614698874
 42
0.1164709921781508
 10
2522.190208530908
 20
2438.577423832654
 10
2520.664349888804
 20
2438.577423832654
 42
-0.414213562373095
 10
2513.664349888804
 20
2445.577423832654
 42
-0.1609736774954528
 10
2515.47206216013
 20
2449.734638820259
 10
2528.215987381325
 20
2464.084371479282
  0
LWPOLYLINE
  5
58
100
AcDbEntity
  8
0
  6
ByLayer
 62
    2
370
   -1
100
AcDbPolyline
 90
   17
 70
    0
 43
0
 10
2435.458045296345
 20
2464.266303095938
 42
-0.2362172165162109
 10
2450.141505369533
 20
2469.100462991889
 10
2471.862936398446
 20
2465.856209994891
 42
-0.1251869431918724
 10
2478.928883783013
 20
2461.90803904425
 10
2485.325052074328
 20
2455.291464528637
 42
-0.1903886243688782
 10
2487.21540438326
 20
2450.506958235072
 10
2487.21540438326
 20
2437.534370133168
 42
-0.4142135623730571
 10
2480.21540438326
 20
2430.534370133167
 10
2432.624069058107
 20
2430.534370133167
 10
2432.624069058107
 20
2435.895243463841
 42
0.2840394112998941
 10
2431.518758652819
 20
2437.683966619925
 10
2430.15489812562
 20
2438.36614698874
 42
0.1164709921781568
 10
2429.260208530908
 20
2438.577423832654
 10
2427.734349888804
 20
2438.577423832654
 42
-0.414213562373095
 10
2420.734349888804
 20
2445.577423832654
 42
-0.1609736774954622
 10
2422.54206216013
 20
2449.734638820259
 10
2435.285987381325
 20
2464.084371479282
  0
LWPOLYLINE
  5
59
100
AcDbEntity
  8
0
  6
ByLayer
 62
    2
370
   -1
100
AcDbPolyline
 90
   17
 70
    0
 43
0
 10
2342.088045296346
 20
2464.266303095937
 42
-0.2362172165162099
 10
2356.771505369533
 20
2469.100462991889
 10
2378.492936398446
 20
2465.856209994891
 42
-0.1251869431918734
 10
2385.558883783013
 20
2461.90803904425
 10
2391.955052074328
 20
2455.291464528637
 42
-0.1903886243688782
 10
2393.84540438326
 20
2450.506958235072
 10
2393.84540438326
 20
2437.534370133168
 42
-0.4142135623730571
 10
2386.84540438326
 20
2430.534370133167
 10
2339.254069058107
 20
2430.534370133167
 10
2339.254069058107
 20
2435.895243463841
 42
0.2840394112999279
 10
2338.148758652819
 20
2437.683966619925
 10
2336.784898125619
 20
2438.36614698874
 42
0.1164709921781508
 10
2335.890208530908
 20
2438.577423832654
 10
2334.364349888804
 20
2438.577423832654
 42
-0.414213562373095
 10
2327.364349888805
 20
2445.577423832654
 42
-0.1609736774954529
 10
2329.172062160132
 20
2449.734638820259
 10
2341.915987381326
 20
2464.084371479282
  0
LWPOLYLINE
  5
5A
100
AcDbEntity
  8
0
  6
ByLayer
 62
    2
370
   -1
100
AcDbPolyline
 90
   17
 70
    0
 43
0
 10
3504.178045296344
 20
2323.616303095938
 42
-0.2362172165162138
 10
3518.861505369532
 20
2328.45046299189
 10
3540.582936398446
 20
2325.206209994892
 42
-0.1251869431918738
 10
3547.648883783013
 20
2321.25803904425
 10
3554.045052074327
 20
2314.641464528637
 42
-0.1903886243688782
 10
3555.935404383259
 20
2309.856958235072
 10
3555.935404383259
 20
2296.884370133168
 42
-0.4142135623730571
 10
3548.935404383259
 20
2289.884370133167
 10
3501.344069058106
 20
2289.884370133167
 10
3501.344069058106
 20
2295.24524346384
 42
0.2840394112999005
 10
3500.238758652818
 20
2297.033966619925
 10
3498.874898125619
 20
2297.716146988739
 42
0.1164709921781582
 10
3497.980208530907
 20
2297.927423832654
 10
3496.454349888804
 20
2297.927423832654
 42
-0.414213562373095
 10
3489.454349888803
 20
2304.927423832654
 42
-0.1609736774954663
 10
3491.26206216013
 20
2309.084638820259
 10
3504.005987381325
 20
2323.434371479282
  0
LWPOLYLINE
  5
5B
100
AcDbEntity
  8
0
  6
ByLayer
 62
    2
370
   -1
100
AcDbPolyline
 90
   17
 70
    0
 43
0
 10
3504.178045296344
 20
2182.966303095938
 42
-0.2362172165162168
 10
3518.861505369532
 20
2187.80046299189
 10
3540.582936398446
 20
2184.55620999489
 42
-0.1251869431918709
 10
3547.648883783013
 20
2180.608039044249
 10
3554.045052074327
 20
2173.991464528637
 42
-0.1903886243688719
 10
3555.935404383259
 20
2169.206958235072
 10
3555.935404383259
 20
2156.234370133168
 42
-0.4142135623730571
 10
3548.935404383259
 20
2149.234370133167
 10
3501.344069058106
 20
2149.234370133167
 10
3501.344069058106
 20
2154.59524346384
 42
0.2840394112999005
 10
3500.238758652818
 20
2156.383966619925
 10
3498.874898125619
 20
2157.066146988739
 42
0.116470992178146
 10
3497.980208530907
 20
2157.277423832654
 10
3496.454349888804
 20
2157.277423832654
 42
-0.414213562373095
 10
3489.454349888802
 20
2164.277423832654
 42
-0.1609736774954685
 10
3491.26206216013
 20
2168.434638820258
 10
3504.005987381325
 20
2182.784371479282
  0
LWPOLYLINE
  5
5C
100
AcDbEntity
  8
0
  6
ByLayer
 62
    2
370
   -1
100
AcDbPolyline
 90
   17
 70
    0
 43
0
 10
3504.178045296344
 20
1959.866303095938
 42
-0.2362172165162168
 10
3518.861505369532
 20
1964.70046299189
 10
3540.582936398446
 20
1961.45620999489
 42
-0.1251869431918716
 10
3547.648883783013
 20
1957.50803904425
 10
3554.045052074327
 20
1950.891464528637
 42
-0.1903886243688729
 10
3555.935404383259
 20
1946.106958235072
 10
3555.935404383259
 20
1933.134370133167
 42
-0.4142135623730667
 10
3548.935404383259
 20
1926.134370133167
 10
3501.344069058106
 20
1926.134370133167
 10
3501.344069058106
 20
1931.49524346384
 42
0.2840394112999111
 10
3500.238758652818
 20
1933.283966619925
 10
3498.874898125619
 20
1933.966146988739
 42
0.116470992178146
 10
3497.980208530907
 20
1934.177423832654
 10
3496.454349888804
 20
1934.177423832654
 42
-0.414213562373095
 10
3489.454349888802
 20
1941.177423832654
 42
-0.1609736774954693
 10
3491.26206216013
 20
1945.334638820258
 10
3504.005987381325
 20
1959.684371479282
  0
LWPOLYLINE
  5
5D
100
AcDbEntity
  8
0
  6
ByLayer
 62
    2
370
   -1
100
AcDbPolyline
 90
   17
 70
    0
 43
0
 10
3410.808045296345
 20
2323.616303095938
 42
-0.2362172165162138
 10
3425.491505369532
 20
2328.45046299189
 10
3447.212936398445
 20
2325.206209994892
 42
-0.1251869431918738
 10
3454.278883783012
 20
2321.25803904425
 10
3460.675052074327
 20
2314.641464528637
 42
-0.1903886243688782
 10
3462.565404383259
 20
2309.856958235072
 10
3462.565404383259
 20
2296.884370133168
 42
-0.4142135623730571
 10
3455.565404383259
 20
2289.884370133167
 10
3407.974069058107
 20
2289.884370133167
 10
3407.974069058107
 20
2295.24524346384
 42
0.2840394112999005
 10
3406.868758652819
 20
2297.033966619925
 10
3405.504898125619
 20
2297.716146988739
 42
0.1164709921781522
 10
3404.610208530908
 20
2297.927423832654
 10
3403.084349888803
 20
2297.927423832654
 42
-0.414213562373095
 10
3396.084349888803
 20
2304.927423832654
 42
-0.1609736774954663
 10
3397.89206216013
 20
2309.084638820259
 10
3410.635987381325
 20
2323.434371479282
  0
LWPOLYLINE
  5
5E
100
AcDbEntity
  8
0
  6
ByLayer
 62
    2
370
   -1
100
AcDbPolyline
 90
   17
 70
    0
 43
0
 10
3317.878045296345
 20
2323.616303095938
 42
-0.2362172165162147
 10
3332.561505369532
 20
2328.45046299189
 10
3354.282936398445
 20
2325.206209994892
 42
-0.1251869431918747
 10
3361.348883783012
 20
2321.25803904425
 10
3367.745052074327
 20
2314.641464528637
 42
-0.1903886243688782
 10
3369.635404383259
 20
2309.856958235072
 10
3369.635404383259
 20
2296.884370133168
 42
-0.4142135623730571
 10
3362.635404383259
 20
2289.884370133167
 10
3315.044069058107
 20
2289.884370133167
 10
3315.044069058107
 20
2295.24524346384
 42
0.2840394112998535
 10
3313.938758652818
 20
2297.033966619925
 10
3312.574898125619
 20
2297.716146988739
 42
0.1164709921781461
 10
3311.680208530908
 20
2297.927423832654
 10
3310.154349888803
 20
2297.927423832654
 42
-0.414213562373095
 10
3303.154349888803
 20
2304.927423832654
 42
-0.1609736774954637
 10
3304.96206216013
 20
2309.084638820259
 10
3317.705987381325
 20
2323.434371479282
  0
LWPOLYLINE
  5
5F
100
AcDbEntity
  8
0
  6
ByLayer
 62
    2
370
   -1
100
AcDbPolyline
 90
   17
 70
    0
 43
0
 10
3187.478045296345
 20
2323.616303095938
 42
-0.2362172165162129
 10
3202.161505369532
 20
2328.45046299189
 10
3223.882936398445
 20
2325.206209994892
 42
-0.1251869431918736
 10
3230.948883783013
 20
2321.25803904425
 10
3237.345052074328
 20
2314.641464528637
 42
-0.1903886243688732
 10
3239.235404383259
 20
2309.856958235072
 10
3239.235404383259
 20
2296.884370133168
 42
-0.4142135623730571
 10
3232.235404383259
 20
2289.884370133167
 10
3184.644069058107
 20
2289.884370133167
 10
3184.644069058107
 20
2295.24524346384
 42
0.2840394112998876
 10
3183.538758652818
 20
2297.033966619925
 10
3182.174898125619
 20
2297.716146988739
 42
0.1164709921781582
 10
3181.280208530907
 20
2297.927423832654
 10
3179.754349888804
 20
2297.927423832654
 42
-0.414213562373095
 10
3172.754349888804
 20
2304.927423832654
 42
-0.1609736774954568
 10
3174.56206216013
 20
2309.084638820259
 10
3187.305987381325
 20
2323.434371479282
  0
LWPOLYLINE
  5
60
100
AcDbEntity
  8
0
  6
ByLayer
 62
    2
370
   -1
100
AcDbPolyline
 90
   17
 70
    0
 43
0
 10
3094.898045296345
 20
2323.616303095938
 42
-0.2362172165162148
 10
3109.581505369533
 20
2328.45046299189
 10
3131.302936398445
 20
2325.206209994892
 42
-0.1251869431918736
 10
3138.368883783013
 20
2321.25803904425
 10
3144.765052074327
 20
2314.641464528637
 42
-0.1903886243688806
 10
3146.65540438326
 20
2309.856958235072
 10
3146.65540438326
 20
2296.884370133168
 42
-0.4142135623730571
 10
3139.65540438326
 20
2289.884370133167
 10
3092.064069058107
 20
2289.884370133167
 10
3092.064069058108
 20
2295.24524346384
 42
0.2840394112999085
 10
3090.958758652818
 20
2297.033966619925
 10
3089.594898125619
 20
2297.716146988739
 42
0.1164709921781582
 10
3088.700208530907
 20
2297.927423832654
 10
3087.174349888804
 20
2297.927423832654
 42
-0.414213562373095
 10
3080.174349888804
 20
2304.927423832654
 42
-0.1609736774954568
 10
3081.98206216013
 20
2309.084638820259
 10
3094.725987381325
 20
2323.434371479282
  0
LWPOLYLINE
  5
61
100
AcDbEntity
  8
0
  6
ByLayer
 62
    2
370
   -1
100
AcDbPolyline
 90
   17
 70
    0
 43
0
 10
3002.408045296345
 20
2323.616303095938
 42
-0.2362172165162138
 10
3017.091505369533
 20
2328.45046299189
 10
3038.812936398445
 20
2325.206209994892
 42
-0.1251869431918736
 10
3045.878883783013
 20
2321.25803904425
 10
3052.275052074328
 20
2314.641464528637
 42
-0.1903886243688782
 10
3054.16540438326
 20
2309.856958235072
 10
3054.16540438326
 20
2296.884370133168
 42
-0.4142135623730571
 10
3047.16540438326
 20
2289.884370133167
 10
2999.574069058107
 20
2289.884370133167
 10
2999.574069058107
 20
2295.24524346384
 42
0.2840394112999005
 10
2998.468758652819
 20
2297.033966619925
 10
2997.104898125619
 20
2297.716146988739
 42
0.1164709921781522
 10
2996.210208530908
 20
2297.927423832654
 10
2994.684349888804
 20
2297.927423832654
 42
-0.414213562373095
 10
2987.684349888804
 20
2304.927423832654
 42
-0.1609736774954661
 10
2989.49206216013
 20
2309.084638820259
 10
3002.235987381326
 20
2323.434371479282
  0
LWPOLYLINE
  5
62
100
AcDbEntity
  8
0
  6
ByLayer
 62
    2
370
   -1
100
AcDbPolyline
 90
   17
 70
    0
 43
0
 10
2843.858045296345
 20
2323.616303095938
 42
-0.2362172165162148
 10
2858.541505369533
 20
2328.45046299189
 10
2880.262936398445
 20
2325.206209994892
 42
-0.1251869431918736
 10
2887.328883783013
 20
2321.25803904425
 10
2893.725052074327
 20
2314.641464528637
 42
-0.1903886243688806
 10
2895.61540438326
 20
2309.856958235072
 10
2895.61540438326
 20
2296.884370133168
 42
-0.4142135623730571
 10
2888.615404383259
 20
2289.884370133167
 10
2841.024069058107
 20
2289.884370133167
 10
2841.024069058108
 20
2295.24524346384
 42
0.2840394112999085
 10
2839.918758652818
 20
2297.033966619925
 10
2838.554898125619
 20
2297.716146988739
 42
0.1164709921781522
 10
2837.660208530908
 20
2297.927423832654
 10
2836.134349888803
 20
2297.927423832654
 42
-0.414213562373095
 10
2829.134349888804
 20
2304.927423832654
 42
-0.1609736774954634
 10
2830.94206216013
 20
2309.084638820259
 10
2843.685987381325
 20
2323.434371479282
  0
LWPOLYLINE
  5
63
100
AcDbEntity
  8
0
  6
ByLayer
 62
    2
370
   -1
100
AcDbPolyline
 90
   17
 70
    0
 43
0
 10
2751.368045296345
 20
2323.616303095938
 42
-0.2362172165162138
 10
2766.051505369533
 20
2328.45046299189
 10
2787.772936398445
 20
2325.206209994892
 42
-0.1251869431918736
 10
2794.838883783013
 20
2321.25803904425
 10
2801.235052074328
 20
2314.641464528637
 42
-0.1903886243688782
 10
2803.12540438326
 20
2309.856958235072
 10
2803.12540438326
 20
2296.884370133168
 42
-0.4142135623730571
 10
2796.12540438326
 20
2289.884370133167
 10
2748.534069058107
 20
2289.884370133167
 10
2748.534069058107
 20
2295.24524346384
 42
0.2840394112998876
 10
2747.428758652818
 20
2297.033966619925
 10
2746.064898125619
 20
2297.716146988739
 42
0.1164709921781522
 10
2745.170208530908
 20
2297.927423832654
 10
2743.644349888804
 20
2297.927423832654
 42
-0.414213562373095
 10
2736.644349888804
 20
2304.927423832654
 42
-0.1609736774954661
 10
2738.45206216013
 20
2309.084638820259
 10
2751.195987381326
 20
2323.434371479282
  0
LWPOLYLINE
  5
64
100
AcDbEntity
  8
0
  6
ByLayer
 62
    2
370
   -1
100
AcDbPolyline
 90
   17
 70
    0
 43
0
 10
2658.788045296345
 20
2323.616303095938
 42
-0.2362172165162138
 10
2673.471505369533
 20
2328.45046299189
 10
2695.192936398445
 20
2325.206209994892
 42
-0.1251869431918736
 10
2702.258883783013
 20
2321.25803904425
 10
2708.655052074328
 20
2314.641464528637
 42
-0.1903886243688782
 10
2710.54540438326
 20
2309.856958235072
 10
2710.54540438326
 20
2296.884370133168
 42
-0.4142135623730571
 10
2703.54540438326
 20
2289.884370133167
 10
2655.954069058107
 20
2289.884370133167
 10
2655.954069058107
 20
2295.24524346384
 42
0.2840394112999005
 10
2654.848758652819
 20
2297.033966619925
 10
2653.484898125619
 20
2297.716146988739
 42
0.1164709921781522
 10
2652.590208530908
 20
2297.927423832654
 10
2651.064349888804
 20
2297.927423832654
 42
-0.414213562373095
 10
2644.064349888804
 20
2304.927423832654
 42
-0.1609736774954661
 10
2645.87206216013
 20
2309.084638820259
 10
2658.615987381326
 20
2323.434371479282
  0
LWPOLYLINE
  5
65
100
AcDbEntity
  8
0
  6
ByLayer
 62
    2
370
   -1
100
AcDbPolyline
 90
   17
 70
    0
 43
0
 10
2528.388045296345
 20
2323.616303095938
 42
-0.2362172165162138
 10
2543.071505369533
 20
2328.45046299189
 10
2564.792936398446
 20
2325.206209994892
 42
-0.1251869431918738
 10
2571.858883783013
 20
2321.25803904425
 10
2578.255052074327
 20
2314.641464528637
 42
-0.1903886243688806
 10
2580.14540438326
 20
2309.856958235072
 10
2580.14540438326
 20
2296.884370133168
 42
-0.4142135623730571
 10
2573.14540438326
 20
2289.884370133167
 10
2525.554069058107
 20
2289.884370133167
 10
2525.554069058107
 20
2295.24524346384
 42
0.2840394112998876
 10
2524.448758652818
 20
2297.033966619925
 10
2523.084898125619
 20
2297.716146988739
 42
0.1164709921781522
 10
2522.190208530908
 20
2297.927423832654
 10
2520.664349888804
 20
2297.927423832654
 42
-0.414213562373095
 10
2513.664349888804
 20
2304.927423832654
 42
-0.1609736774954568
 10
2515.47206216013
 20
2309.084638820259
 10
2528.215987381325
 20
2323.434371479282
  0
LWPOLYLINE
  5
66
100
AcDbEntity
  8
0
  6
ByLayer
 62
    2
370
   -1
100
AcDbPolyline
 90
   17
 70
    0
 43
0
 10
2435.458045296345
 20
2323.616303095938
 42
-0.2362172165162138
 10
2450.141505369533
 20
2328.45046299189
 10
2471.862936398446
 20
2325.206209994892
 42
-0.1251869431918738
 10
2478.928883783013
 20
2321.25803904425
 10
2485.325052074328
 20
2314.641464528637
 42
-0.1903886243688782
 10
2487.21540438326
 20
2309.856958235072
 10
2487.21540438326
 20
2296.884370133168
 42
-0.4142135623730571
 10
2480.21540438326
 20
2289.884370133167
 10
2432.624069058107
 20
2289.884370133167
 10
2432.624069058107
 20
2295.24524346384
 42
0.2840394112999005
 10
2431.518758652819
 20
2297.033966619925
 10
2430.15489812562
 20
2297.716146988739
 42
0.1164709921781582
 10
2429.260208530908
 20
2297.927423832654
 10
2427.734349888804
 20
2297.927423832654
 42
-0.414213562373095
 10
2420.734349888804
 20
2304.927423832654
 42
-0.1609736774954661
 10
2422.54206216013
 20
2309.084638820259
 10
2435.285987381325
 20
2323.434371479282
  0
LWPOLYLINE
  5
67
100
AcDbEntity
  8
0
  6
ByLayer
 62
    2
370
   -1
100
AcDbPolyline
 90
   17
 70
    0
 43
0
 10
2342.088045296345
 20
2323.616303095938
 42
-0.2362172165162129
 10
2356.771505369533
 20
2328.45046299189
 10
2378.492936398446
 20
2325.206209994892
 42
-0.1251869431918747
 10
2385.558883783013
 20
2321.25803904425
 10
2391.955052074328
 20
2314.641464528637
 42
-0.1903886243688782
 10
2393.84540438326
 20
2309.856958235072
 10
2393.84540438326
 20
2296.884370133168
 42
-0.4142135623730571
 10
2386.84540438326
 20
2289.884370133167
 10
2339.254069058107
 20
2289.884370133167
 10
2339.254069058107
 20
2295.24524346384
 42
0.2840394112999346
 10
2338.148758652819
 20
2297.033966619926
 10
2336.784898125619
 20
2297.716146988739
 42
0.1164709921781522
 10
2335.890208530908
 20
2297.927423832654
 10
2334.364349888804
 20
2297.927423832654
 42
-0.414213562373095
 10
2327.364349888805
 20
2304.927423832654
 42
-0.1609736774954569
 10
2329.172062160131
 20
2309.084638820259
 10
2341.915987381326
 20
2323.434371479282
  0
LWPOLYLINE
  5
68
100
AcDbEntity
  8
0
  6
ByLayer
 62
    2
370
   -1
100
AcDbPolyline
 90
   17
 70
    0
 43
0
 10
3410.808045296345
 20
2182.966303095938
 42
-0.2362172165162167
 10
3425.491505369532
 20
2187.80046299189
 10
3447.212936398445
 20
2184.55620999489
 42
-0.1251869431918709
 10
3454.278883783012
 20
2180.608039044249
 10
3460.675052074327
 20
2173.991464528637
 42
-0.1903886243688719
 10
3462.565404383259
 20
2169.206958235072
 10
3462.565404383259
 20
2156.234370133168
 42
-0.4142135623730571
 10
3455.565404383259
 20
2149.234370133167
 10
3407.974069058107
 20
2149.234370133167
 10
3407.974069058107
 20
2154.59524346384
 42
0.2840394112999005
 10
3406.868758652819
 20
2156.383966619925
 10
3405.504898125619
 20
2157.066146988739
 42
0.11647099217814
 10
3404.610208530908
 20
2157.277423832654
 10
3403.084349888803
 20
2157.277423832654
 42
-0.414213562373095
 10
3396.084349888803
 20
2164.277423832654
 42
-0.1609736774954685
 10
3397.89206216013
 20
2168.434638820258
 10
3410.635987381325
 20
2182.784371479282
  0
LWPOLYLINE
  5
69
100
AcDbEntity
  8
0
  6
ByLayer
 62
    2
370
   -1
100
AcDbPolyline
 90
   17
 70
    0
 43
0
 10
3317.878045296345
 20
2182.966303095938
 42
-0.2362172165162178
 10
3332.561505369532
 20
2187.80046299189
 10
3354.282936398445
 20
2184.55620999489
 42
-0.1251869431918717
 10
3361.348883783012
 20
2180.608039044249
 10
3367.745052074327
 20
2173.991464528637
 42
-0.1903886243688719
 10
3369.635404383259
 20
2169.206958235072
 10
3369.635404383259
 20
2156.234370133168
 42
-0.4142135623730571
 10
3362.635404383259
 20
2149.234370133167
 10
3315.044069058107
 20
2149.234370133167
 10
3315.044069058107
 20
2154.59524346384
 42
0.2840394112998535
 10
3313.938758652818
 20
2156.383966619925
 10
3312.574898125619
 20
2157.066146988739
 42
0.1164709921781339
 10
3311.680208530908
 20
2157.277423832654
 10
3310.154349888803
 20
2157.277423832654
 42
-0.414213562373095
 10
3303.154349888803
 20
2164.277423832654
 42
-0.1609736774954658
 10
3304.96206216013
 20
2168.434638820258
 10
3317.705987381325
 20
2182.784371479282
  0
LWPOLYLINE
  5
6A
100
AcDbEntity
  8
0
  6
ByLayer
 62
    2
370
   -1
100
AcDbPolyline
 90
   17
 70
    0
 43
0
 10
3187.478045296345
 20
2182.966303095938
 42
-0.2362172165162158
 10
3202.161505369532
 20
2187.80046299189
 10
3223.882936398445
 20
2184.55620999489
 42
-0.1251869431918706
 10
3230.948883783013
 20
2180.608039044249
 10
3237.345052074328
 20
2173.991464528637
 42
-0.1903886243688672
 10
3239.235404383258
 20
2169.206958235072
 10
3239.235404383259
 20
2156.234370133168
 42
-0.4142135623730571
 10
3232.235404383259
 20
2149.234370133167
 10
3184.644069058107
 20
2149.234370133167
 10
3184.644069058107
 20
2154.59524346384
 42
0.2840394112998876
 10
3183.538758652818
 20
2156.383966619925
 10
3182.174898125619
 20
2157.066146988739
 42
0.116470992178146
 10
3181.280208530907
 20
2157.277423832654
 10
3179.754349888804
 20
2157.277423832654
 42
-0.414213562373095
 10
3172.754349888804
 20
2164.277423832654
 42
-0.1609736774954591
 10
3174.56206216013
 20
2168.434638820258
 10
3187.305987381325
 20
2182.784371479282
  0
LWPOLYLINE
  5
6B
100
AcDbEntity
  8
0
  6
ByLayer
 62
    2
370
   -1
100
AcDbPolyline
 90
   17
 70
    0
 43
0
 10
3094.898045296345
 20
2182.966303095938
 42
-0.2362172165162178
 10
3109.581505369533
 20
2187.80046299189
 10
3131.302936398445
 20
2184.55620999489
 42
-0.1251869431918706
 10
3138.368883783013
 20
2180.608039044249
 10
3144.765052074327
 20
2173.991464528637
 42
-0.1903886243688745
 10
3146.65540438326
 20
2169.206958235072
 10
3146.65540438326
 20
2156.234370133168
 42
-0.4142135623730571
 10
3139.65540438326
 20
2149.234370133167
 10
3092.064069058107
 20
2149.234370133167
 10
3092.064069058108
 20
2154.59524346384
 42
0.2840394112999085
 10
3090.958758652818
 20
2156.383966619925
 10
3089.594898125619
 20
2157.066146988739
 42
0.116470992178146
 10
3088.700208530907
 20
2157.277423832654
 10
3087.174349888804
 20
2157.277423832654
 42
-0.414213562373095
 10
3080.174349888804
 20
2164.277423832654
 42
-0.1609736774954591
 10
3081.98206216013
 20
2168.434638820258
 10
3094.725987381325
 20
2182.784371479282
  0
LWPOLYLINE
  5
6C
100
AcDbEntity
  8
0
  6
ByLayer
 62
    2
370
   -1
100
AcDbPolyline
 90
   17
 70
    0
 43
0
 10
3002.408045296345
 20
2182.966303095938
 42
-0.2362172165162168
 10
3017.091505369533
 20
2187.80046299189
 10
3038.812936398445
 20
2184.55620999489
 42
-0.1251869431918706
 10
3045.878883783013
 20
2180.608039044249
 10
3052.275052074328
 20
2173.991464528637
 42
-0.1903886243688719
 10
3054.16540438326
 20
2169.206958235072
 10
3054.16540438326
 20
2156.234370133168
 42
-0.4142135623730571
 10
3047.16540438326
 20
2149.234370133167
 10
2999.574069058107
 20
2149.234370133167
 10
2999.574069058107
 20
2154.59524346384
 42
0.2840394112999005
 10
2998.468758652819
 20
2156.383966619925
 10
2997.104898125619
 20
2157.066146988739
 42
0.11647099217814
 10
2996.210208530908
 20
2157.277423832654
 10
2994.684349888804
 20
2157.277423832654
 42
-0.414213562373095
 10
2987.684349888803
 20
2164.277423832654
 42
-0.1609736774954684
 10
2989.49206216013
 20
2168.434638820258
 10
3002.235987381326
 20
2182.784371479282
  0
LWPOLYLINE
  5
6D
100
AcDbEntity
  8
0
  6
ByLayer
 62
    2
370
   -1
100
AcDbPolyline
 90
   17
 70
    0
 43
0
 10
2843.858045296345
 20
2182.966303095938
 42
-0.2362172165162178
 10
2858.541505369533
 20
2187.80046299189
 10
2880.262936398445
 20
2184.55620999489
 42
-0.1251869431918706
 10
2887.328883783013
 20
2180.608039044249
 10
2893.725052074327
 20
2173.991464528637
 42
-0.1903886243688745
 10
2895.61540438326
 20
2169.206958235072
 10
2895.61540438326
 20
2156.234370133168
 42
-0.4142135623730571
 10
2888.615404383259
 20
2149.234370133167
 10
2841.024069058107
 20
2149.234370133167
 10
2841.024069058108
 20
2154.59524346384
 42
0.2840394112999085
 10
2839.918758652818
 20
2156.383966619925
 10
2838.554898125619
 20
2157.066146988739
 42
0.1164709921781401
 10
2837.660208530908
 20
2157.277423832654
 10
2836.134349888803
 20
2157.277423832654
 42
-0.414213562373095
 10
2829.134349888804
 20
2164.277423832654
 42
-0.1609736774954658
 10
2830.94206216013
 20
2168.434638820258
 10
2843.685987381325
 20
2182.784371479282
  0
LWPOLYLINE
  5
6E
100
AcDbEntity
  8
0
  6
ByLayer
 62
    2
370
   -1
100
AcDbPolyline
 90
   17
 70
    0
 43
0
 10
2751.368045296345
 20
2182.966303095938
 42
-0.2362172165162168
 10
2766.051505369533
 20
2187.80046299189
 10
2787.772936398445
 20
2184.55620999489
 42
-0.1251869431918706
 10
2794.838883783013
 20
2180.608039044249
 10
2801.235052074328
 20
2173.991464528637
 42
-0.1903886243688719
 10
2803.12540438326
 20
2169.206958235072
 10
2803.12540438326
 20
2156.234370133168
 42
-0.4142135623730571
 10
2796.12540438326
 20
2149.234370133167
 10
2748.534069058107
 20
2149.234370133167
 10
2748.534069058107
 20
2154.59524346384
 42
0.2840394112998876
 10
2747.428758652818
 20
2156.383966619925
 10
2746.064898125619
 20
2157.066146988739
 42
0.11647099217814
 10
2745.170208530908
 20
2157.277423832654
 10
2743.644349888804
 20
2157.277423832654
 42
-0.414213562373095
 10
2736.644349888803
 20
2164.277423832654
 42
-0.1609736774954684
 10
2738.45206216013
 20
2168.434638820258
 10
2751.195987381326
 20
2182.784371479282
  0
LWPOLYLINE
  5
6F
100
AcDbEntity
  8
0
  6
ByLayer
 62
    2
370
   -1
100
AcDbPolyline
 90
   17
 70
    0
 43
0
 10
2658.788045296345
 20
2182.966303095938
 42
-0.2362172165162168
 10
2673.471505369533
 20
2187.80046299189
 10
2695.192936398445
 20
2184.55620999489
 42
-0.1251869431918706
 10
2702.258883783013
 20
2180.608039044249
 10
2708.655052074328
 20
2173.991464528637
 42
-0.1903886243688719
 10
2710.54540438326
 20
2169.206958235072
 10
2710.54540438326
 20
2156.234370133168
 42
-0.4142135623730571
 10
2703.54540438326
 20
2149.234370133167
 10
2655.954069058107
 20
2149.234370133167
 10
2655.954069058107
 20
2154.59524346384
 42
0.2840394112999005
 10
2654.848758652819
 20
2156.383966619925
 10
2653.484898125619
 20
2157.066146988739
 42
0.11647099217814
 10
2652.590208530908
 20
2157.277423832654
 10
2651.064349888804
 20
2157.277423832654
 42
-0.414213562373095
 10
2644.064349888803
 20
2164.277423832654
 42
-0.1609736774954684
 10
2645.87206216013
 20
2168.434638820258
 10
2658.615987381326
 20
2182.784371479282
  0
LWPOLYLINE
  5
70
100
AcDbEntity
  8
0
  6
ByLayer
 62
    2
370
   -1
100
AcDbPolyline
 90
   17
 70
    0
 43
0
 10
2528.388045296345
 20
2182.966303095938
 42
-0.2362172165162168
 10
2543.071505369533
 20
2187.80046299189
 10
2564.792936398446
 20
2184.55620999489
 42
-0.1251869431918709
 10
2571.858883783013
 20
2180.608039044249
 10
2578.255052074327
 20
2173.991464528637
 42
-0.1903886243688745
 10
2580.14540438326
 20
2169.206958235072
 10
2580.14540438326
 20
2156.234370133168
 42
-0.4142135623730571
 10
2573.14540438326
 20
2149.234370133167
 10
2525.554069058107
 20
2149.234370133167
 10
2525.554069058107
 20
2154.59524346384
 42
0.2840394112998876
 10
2524.448758652818
 20
2156.383966619925
 10
2523.084898125619
 20
2157.066146988739
 42
0.11647099217814
 10
2522.190208530908
 20
2157.277423832654
 10
2520.664349888804
 20
2157.277423832654
 42
-0.414213562373095
 10
2513.664349888804
 20
2164.277423832654
 42
-0.1609736774954591
 10
2515.47206216013
 20
2168.434638820258
 10
2528.215987381325
 20
2182.784371479282
  0
LWPOLYLINE
  5
71
100
AcDbEntity
  8
0
  6
ByLayer
 62
    2
370
   -1
100
AcDbPolyline
 90
   17
 70
    0
 43
0
 10
2435.458045296345
 20
2182.966303095938
 42
-0.2362172165162168
 10
2450.141505369533
 20
2187.80046299189
 10
2471.862936398446
 20
2184.55620999489
 42
-0.1251869431918709
 10
2478.928883783013
 20
2180.608039044249
 10
2485.325052074328
 20
2173.991464528637
 42
-0.1903886243688719
 10
2487.21540438326
 20
2169.206958235072
 10
2487.21540438326
 20
2156.234370133168
 42
-0.4142135623730571
 10
2480.21540438326
 20
2149.234370133167
 10
2432.624069058107
 20
2149.234370133167
 10
2432.624069058107
 20
2154.59524346384
 42
0.2840394112999005
 10
2431.518758652819
 20
2156.383966619925
 10
2430.15489812562
 20
2157.066146988739
 42
0.116470992178146
 10
2429.260208530908
 20
2157.277423832654
 10
2427.734349888804
 20
2157.277423832654
 42
-0.414213562373095
 10
2420.734349888804
 20
2164.277423832654
 42
-0.1609736774954684
 10
2422.54206216013
 20
2168.434638820258
 10
2435.285987381325
 20
2182.784371479282
  0
LWPOLYLINE
  5
72
100
AcDbEntity
  8
0
  6
ByLayer
 62
    2
370
   -1
100
AcDbPolyline
 90
   17
 70
    0
 43
0
 10
2342.088045296345
 20
2182.966303095938
 42
-0.2362172165162159
 10
2356.771505369533
 20
2187.80046299189
 10
2378.492936398446
 20
2184.55620999489
 42
-0.1251869431918717
 10
2385.558883783013
 20
2180.608039044249
 10
2391.955052074328
 20
2173.991464528637
 42
-0.1903886243688719
 10
2393.84540438326
 20
2169.206958235072
 10
2393.84540438326
 20
2156.234370133168
 42
-0.4142135623730571
 10
2386.84540438326
 20
2149.234370133167
 10
2339.254069058107
 20
2149.234370133167
 10
2339.254069058107
 20
2154.59524346384
 42
0.2840394112999346
 10
2338.148758652819
 20
2156.383966619926
 10
2336.784898125619
 20
2157.066146988739
 42
0.11647099217814
 10
2335.890208530908
 20
2157.277423832654
 10
2334.364349888804
 20
2157.277423832654
 42
-0.414213562373095
 10
2327.364349888804
 20
2164.277423832654
 42
-0.1609736774954593
 10
2329.172062160131
 20
2168.434638820258
 10
2341.915987381326
 20
2182.784371479282
  0
LWPOLYLINE
  5
73
100
AcDbEntity
  8
0
  6
ByLayer
 62
    2
370
   -1
100
AcDbPolyline
 90
   17
 70
    0
 43
0
 10
3410.808045296345
 20
1959.866303095938
 42
-0.2362172165162167
 10
3425.491505369532
 20
1964.70046299189
 10
3447.212936398445
 20
1961.45620999489
 42
-0.1251869431918716
 10
3454.278883783012
 20
1957.50803904425
 10
3460.675052074327
 20
1950.891464528637
 42
-0.1903886243688729
 10
3462.565404383259
 20
1946.106958235072
 10
3462.565404383259
 20
1933.134370133167
 42
-0.4142135623730667
 10
3455.565404383259
 20
1926.134370133167
 10
3407.974069058107
 20
1926.134370133167
 10
3407.974069058107
 20
1931.49524346384
 42
0.2840394112999111
 10
3406.868758652819
 20
1933.283966619925
 10
3405.504898125619
 20
1933.966146988739
 42
0.1164709921781529
 10
3404.610208530908
 20
1934.177423832654
 10
3403.084349888803
 20
1934.177423832654
 42
-0.414213562373095
 10
3396.084349888803
 20
1941.177423832654
 42
-0.1609736774954693
 10
3397.89206216013
 20
1945.334638820258
 10
3410.635987381325
 20
1959.684371479282
  0
LWPOLYLINE
  5
74
100
AcDbEntity
  8
0
  6
ByLayer
 62
    2
370
   -1
100
AcDbPolyline
 90
   17
 70
    0
 43
0
 10
3317.878045296345
 20
1959.866303095938
 42
-0.2362172165162178
 10
3332.561505369532
 20
1964.70046299189
 10
3354.282936398445
 20
1961.45620999489
 42
-0.1251869431918727
 10
3361.348883783012
 20
1957.50803904425
 10
3367.745052074327
 20
1950.891464528637
 42
-0.1903886243688729
 10
3369.635404383259
 20
1946.106958235072
 10
3369.635404383259
 20
1933.134370133167
 42
-0.4142135623730667
 10
3362.635404383259
 20
1926.134370133167
 10
3315.044069058107
 20
1926.134370133167
 10
3315.044069058107
 20
1931.49524346384
 42
0.2840394112998811
 10
3313.938758652818
 20
1933.283966619925
 10
3312.574898125619
 20
1933.966146988739
 42
0.1164709921781468
 10
3311.680208530908
 20
1934.177423832654
 10
3310.154349888803
 20
1934.177423832654
 42
-0.414213562373095
 10
3303.154349888803
 20
1941.177423832654
 42
-0.1609736774954646
 10
3304.96206216013
 20
1945.334638820258
 10
3317.705987381325
 20
1959.684371479282
  0
LWPOLYLINE
  5
75
100
AcDbEntity
  8
0
  6
ByLayer
 62
    2
370
   -1
100
AcDbPolyline
 90
   17
 70
    0
 43
0
 10
3187.478045296345
 20
1959.866303095938
 42
-0.2362172165162158
 10
3202.161505369532
 20
1964.70046299189
 10
3223.882936398445
 20
1961.45620999489
 42
-0.1251869431918715
 10
3230.948883783013
 20
1957.50803904425
 10
3237.345052074328
 20
1950.891464528637
 42
-0.1903886243688677
 10
3239.235404383259
 20
1946.106958235072
 10
3239.235404383259
 20
1933.134370133167
 42
-0.4142135623730667
 10
3232.235404383259
 20
1926.134370133167
 10
3184.644069058107
 20
1926.134370133167
 10
3184.644069058107
 20
1931.49524346384
 42
0.284039411299898
 10
3183.538758652818
 20
1933.283966619925
 10
3182.174898125619
 20
1933.966146988739
 42
0.116470992178146
 10
3181.280208530907
 20
1934.177423832654
 10
3179.754349888804
 20
1934.177423832654
 42
-0.414213562373095
 10
3172.754349888804
 20
1941.177423832654
 42
-0.1609736774954599
 10
3174.56206216013
 20
1945.334638820258
 10
3187.305987381325
 20
1959.684371479282
  0
LWPOLYLINE
  5
76
100
AcDbEntity
  8
0
  6
ByLayer
 62
    2
370
   -1
100
AcDbPolyline
 90
   17
 70
    0
 43
0
 10
3094.898045296345
 20
1959.866303095938
 42
-0.2362172165162178
 10
3109.581505369533
 20
1964.70046299189
 10
3131.302936398445
 20
1961.45620999489
 42
-0.1251869431918715
 10
3138.368883783013
 20
1957.50803904425
 10
3144.765052074327
 20
1950.891464528637
 42
-0.190388624368873
 10
3146.65540438326
 20
1946.106958235072
 10
3146.65540438326
 20
1933.134370133167
 42
-0.4142135623730667
 10
3139.65540438326
 20
1926.134370133167
 10
3092.064069058107
 20
1926.134370133167
 10
3092.064069058108
 20
1931.49524346384
 42
0.284039411299936
 10
3090.958758652818
 20
1933.283966619925
 10
3089.594898125619
 20
1933.966146988739
 42
0.116470992178146
 10
3088.700208530907
 20
1934.177423832654
 10
3087.174349888804
 20
1934.177423832654
 42
-0.414213562373095
 10
3080.174349888804
 20
1941.177423832654
 42
-0.1609736774954599
 10
3081.98206216013
 20
1945.334638820258
 10
3094.725987381325
 20
1959.684371479282
  0
LWPOLYLINE
  5
77
100
AcDbEntity
  8
0
  6
ByLayer
 62
    2
370
   -1
100
AcDbPolyline
 90
   17
 70
    0
 43
0
 10
3002.408045296345
 20
1959.866303095938
 42
-0.2362172165162168
 10
3017.091505369533
 20
1964.70046299189
 10
3038.812936398445
 20
1961.45620999489
 42
-0.1251869431918715
 10
3045.878883783013
 20
1957.50803904425
 10
3052.275052074328
 20
1950.891464528637
 42
-0.1903886243688729
 10
3054.16540438326
 20
1946.106958235072
 10
3054.16540438326
 20
1933.134370133167
 42
-0.4142135623730667
 10
3047.16540438326
 20
1926.134370133167
 10
2999.574069058107
 20
1926.134370133167
 10
2999.574069058107
 20
1931.49524346384
 42
0.2840394112999111
 10
2998.468758652819
 20
1933.283966619925
 10
2997.104898125619
 20
1933.966146988739
 42
0.1164709921781529
 10
2996.210208530908
 20
1934.177423832654
 10
2994.684349888804
 20
1934.177423832654
 42
-0.414213562373095
 10
2987.684349888803
 20
1941.177423832654
 42
-0.1609736774954691
 10
2989.49206216013
 20
1945.334638820258
 10
3002.235987381326
 20
1959.684371479282
  0
LWPOLYLINE
  5
78
100
AcDbEntity
  8
0
  6
ByLayer
 62
    2
370
   -1
100
AcDbPolyline
 90
   17
 70
    0
 43
0
 10
2843.858045296345
 20
1959.866303095938
 42
-0.2362172165162178
 10
2858.541505369533
 20
1964.70046299189
 10
2880.262936398445
 20
1961.45620999489
 42
-0.1251869431918715
 10
2887.328883783013
 20
1957.50803904425
 10
2893.725052074327
 20
1950.891464528637
 42
-0.190388624368873
 10
2895.61540438326
 20
1946.106958235072
 10
2895.61540438326
 20
1933.134370133167
 42
-0.4142135623730664
 10
2888.615404383259
 20
1926.134370133167
 10
2841.024069058107
 20
1926.134370133167
 10
2841.024069058108
 20
1931.49524346384
 42
0.284039411299936
 10
2839.918758652818
 20
1933.283966619925
 10
2838.554898125619
 20
1933.966146988739
 42
0.116470992178153
 10
2837.660208530908
 20
1934.177423832654
 10
2836.134349888803
 20
1934.177423832654
 42
-0.414213562373095
 10
2829.134349888804
 20
1941.177423832654
 42
-0.1609736774954645
 10
2830.94206216013
 20
1945.334638820258
 10
2843.685987381325
 20
1959.684371479282
  0
LWPOLYLINE
  5
79
100
AcDbEntity
  8
0
  6
ByLayer
 62
    2
370
   -1
100
AcDbPolyline
 90
   17
 70
    0
 43
0
 10
2751.368045296345
 20
1959.866303095938
 42
-0.2362172165162168
 10
2766.051505369533
 20
1964.70046299189
 10
2787.772936398445
 20
1961.45620999489
 42
-0.1251869431918715
 10
2794.838883783013
 20
1957.50803904425
 10
2801.235052074328
 20
1950.891464528637
 42
-0.1903886243688729
 10
2803.12540438326
 20
1946.106958235072
 10
2803.12540438326
 20
1933.134370133167
 42
-0.4142135623730667
 10
2796.12540438326
 20
1926.134370133167
 10
2748.534069058107
 20
1926.134370133167
 10
2748.534069058107
 20
1931.49524346384
 42
0.284039411299898
 10
2747.428758652818
 20
1933.283966619925
 10
2746.064898125619
 20
1933.966146988739
 42
0.1164709921781529
 10
2745.170208530908
 20
1934.177423832654
 10
2743.644349888804
 20
1934.177423832654
 42
-0.414213562373095
 10
2736.644349888803
 20
1941.177423832654
 42
-0.1609736774954691
 10
2738.45206216013
 20
1945.334638820258
 10
2751.195987381326
 20
1959.684371479282
  0
LWPOLYLINE
  5
7A
100
AcDbEntity
  8
0
  6
ByLayer
 62
    2
370
   -1
100
AcDbPolyline
 90
   17
 70
    0
 43
0
 10
2658.788045296345
 20
1959.866303095938
 42
-0.2362172165162168
 10
2673.471505369533
 20
1964.70046299189
 10
2695.192936398445
 20
1961.45620999489
 42
-0.1251869431918715
 10
2702.258883783013
 20
1957.50803904425
 10
2708.655052074328
 20
1950.891464528637
 42
-0.1903886243688729
 10
2710.54540438326
 20
1946.106958235072
 10
2710.54540438326
 20
1933.134370133167
 42
-0.4142135623730667
 10
2703.54540438326
 20
1926.134370133167
 10
2655.954069058107
 20
1926.134370133167
 10
2655.954069058107
 20
1931.49524346384
 42
0.2840394112999111
 10
2654.848758652819
 20
1933.283966619925
 10
2653.484898125619
 20
1933.966146988739
 42
0.1164709921781529
 10
2652.590208530908
 20
1934.177423832654
 10
2651.064349888804
 20
1934.177423832654
 42
-0.414213562373095
 10
2644.064349888803
 20
1941.177423832654
 42
-0.1609736774954691
 10
2645.87206216013
 20
1945.334638820258
 10
2658.615987381326
 20
1959.684371479282
  0
LWPOLYLINE
  5
7B
100
AcDbEntity
  8
0
  6
ByLayer
 62
    2
370
   -1
100
AcDbPolyline
 90
   17
 70
    0
 43
0
 10
2528.388045296345
 20
1959.866303095938
 42
-0.2362172165162168
 10
2543.071505369533
 20
1964.70046299189
 10
2564.792936398446
 20
1961.45620999489
 42
-0.1251869431918716
 10
2571.858883783013
 20
1957.50803904425
 10
2578.255052074327
 20
1950.891464528637
 42
-0.190388624368873
 10
2580.14540438326
 20
1946.106958235072
 10
2580.14540438326
 20
1933.134370133167
 42
-0.4142135623730667
 10
2573.14540438326
 20
1926.134370133167
 10
2525.554069058107
 20
1926.134370133167
 10
2525.554069058107
 20
1931.49524346384
 42
0.284039411299898
 10
2524.448758652818
 20
1933.283966619925
 10
2523.084898125619
 20
1933.966146988739
 42
0.1164709921781529
 10
2522.190208530908
 20
1934.177423832654
 10
2520.664349888804
 20
1934.177423832654
 42
-0.414213562373095
 10
2513.664349888804
 20
1941.177423832654
 42
-0.1609736774954599
 10
2515.47206216013
 20
1945.334638820258
 10
2528.215987381325
 20
1959.684371479282
  0
LWPOLYLINE
  5
7C
100
AcDbEntity
  8
0
  6
ByLayer
 62
    2
370
   -1
100
AcDbPolyline
 90
   17
 70
    0
 43
0
 10
2435.458045296345
 20
1959.866303095938
 42
-0.2362172165162168
 10
2450.141505369533
 20
1964.70046299189
 10
2471.862936398446
 20
1961.45620999489
 42
-0.1251869431918716
 10
2478.928883783013
 20
1957.50803904425
 10
2485.325052074328
 20
1950.891464528637
 42
-0.1903886243688729
 10
2487.21540438326
 20
1946.106958235072
 10
2487.21540438326
 20
1933.134370133167
 42
-0.4142135623730667
 10
2480.21540438326
 20
1926.134370133167
 10
2432.624069058107
 20
1926.134370133167
 10
2432.624069058107
 20
1931.49524346384
 42
0.2840394112999111
 10
2431.518758652819
 20
1933.283966619925
 10
2430.15489812562
 20
1933.966146988739
 42
0.116470992178146
 10
2429.260208530908
 20
1934.177423832654
 10
2427.734349888804
 20
1934.177423832654
 42
-0.414213562373095
 10
2420.734349888804
 20
1941.177423832654
 42
-0.1609736774954691
 10
2422.54206216013
 20
1945.334638820258
 10
2435.285987381325
 20
1959.684371479282
  0
LWPOLYLINE
  5
7D
100
AcDbEntity
  8
0
  6
ByLayer
 62
    2
370
   -1
100
AcDbPolyline
 90
   17
 70
    0
 43
0
 10
2342.088045296345
 20
1959.866303095938
 42
-0.2362172165162159
 10
2356.771505369533
 20
1964.70046299189
 10
2378.492936398446
 20
1961.45620999489
 42
-0.1251869431918727
 10
2385.558883783013
 20
1957.50803904425
 10
2391.955052074328
 20
1950.891464528637
 42
-0.1903886243688729
 10
2393.84540438326
 20
1946.106958235072
 10
2393.84540438326
 20
1933.134370133167
 42
-0.4142135623730667
 10
2386.84540438326
 20
1926.134370133167
 10
2339.254069058107
 20
1926.134370133167
 10
2339.254069058107
 20
1931.49524346384
 42
0.2840394112999279
 10
2338.148758652819
 20
1933.283966619925
 10
2336.784898125619
 20
1933.966146988739
 42
0.1164709921781529
 10
2335.890208530908
 20
1934.177423832654
 10
2334.364349888804
 20
1934.177423832654
 42
-0.414213562373095
 10
2327.364349888804
 20
1941.177423832654
 42
-0.16097367749546
 10
2329.172062160131
 20
1945.334638820258
 10
2341.915987381326
 20
1959.684371479282
  0
LWPOLYLINE
  5
7E
100
AcDbEntity
  8
0
  6
ByLayer
 62
    2
370
   -1
100
AcDbPolyline
 90
   17
 70
    0
 43
0
 10
3504.178045296344
 20
1819.216303095938
 42
-0.2362172165162142
 10
3518.861505369532
 20
1824.05046299189
 10
3540.582936398446
 20
1820.80620999489
 42
-0.1251869431918725
 10
3547.648883783013
 20
1816.85803904425
 10
3554.045052074327
 20
1810.241464528636
 42
-0.1903886243688729
 10
3555.935404383259
 20
1805.456958235071
 10
3555.935404383259
 20
1792.484370133167
 42
-0.4142135623730667
 10
3548.935404383259
 20
1785.484370133167
 10
3501.344069058106
 20
1785.484370133167
 10
3501.344069058106
 20
1790.84524346384
 42
0.2840394112998698
 10
3500.238758652818
 20
1792.633966619925
 10
3498.874898125619
 20
1793.316146988739
 42
0.1164709921781393
 10
3497.980208530907
 20
1793.527423832654
 10
3496.454349888804
 20
1793.527423832654
 42
-0.414213562373095
 10
3489.454349888802
 20
1800.527423832654
 42
-0.1609736774954693
 10
3491.26206216013
 20
1804.684638820258
 10
3504.005987381325
 20
1819.034371479282
  0
LWPOLYLINE
  5
7F
100
AcDbEntity
  8
0
  6
ByLayer
 62
    2
370
   -1
100
AcDbPolyline
 90
   17
 70
    0
 43
0
 10
3504.178045296344
 20
1678.566303095937
 42
-0.2362172165162144
 10
3518.861505369532
 20
1683.40046299189
 10
3540.582936398446
 20
1680.15620999489
 42
-0.1251869431918732
 10
3547.648883783013
 20
1676.208039044249
 10
3554.045052074327
 20
1669.591464528636
 42
-0.1903886243688782
 10
3555.935404383259
 20
1664.806958235071
 10
3555.935404383259
 20
1651.834370133167
 42
-0.4142135623730667
 10
3548.935404383259
 20
1644.834370133167
 10
3501.344069058106
 20
1644.834370133167
 10
3501.344069058106
 20
1650.19524346384
 42
0.2840394112998698
 10
3500.238758652818
 20
1651.983966619925
 10
3498.874898125619
 20
1652.666146988738
 42
0.1164709921781346
 10
3497.980208530907
 20
1652.877423832654
 10
3496.454349888804
 20
1652.877423832654
 42
-0.414213562373095
 10
3489.454349888802
 20
1659.877423832654
 42
-0.1609736774954693
 10
3491.26206216013
 20
1664.034638820258
 10
3504.005987381325
 20
1678.384371479281
  0
LWPOLYLINE
  5
80
100
AcDbEntity
  8
0
  6
ByLayer
 62
    2
370
   -1
100
AcDbPolyline
 90
   17
 70
    0
 43
0
 10
3410.808045296345
 20
1819.216303095938
 42
-0.2362172165162142
 10
3425.491505369532
 20
1824.05046299189
 10
3447.212936398445
 20
1820.80620999489
 42
-0.1251869431918725
 10
3454.278883783012
 20
1816.85803904425
 10
3460.675052074327
 20
1810.241464528636
 42
-0.1903886243688729
 10
3462.565404383259
 20
1805.456958235071
 10
3462.565404383259
 20
1792.484370133167
 42
-0.4142135623730667
 10
3455.565404383259
 20
1785.484370133167
 10
3407.974069058107
 20
1785.484370133167
 10
3407.974069058107
 20
1790.84524346384
 42
0.2840394112998698
 10
3406.868758652819
 20
1792.633966619925
 10
3405.504898125619
 20
1793.316146988739
 42
0.116470992178146
 10
3404.610208530908
 20
1793.527423832654
 10
3403.084349888803
 20
1793.527423832654
 42
-0.414213562373095
 10
3396.084349888803
 20
1800.527423832654
 42
-0.1609736774954693
 10
3397.89206216013
 20
1804.684638820258
 10
3410.635987381325
 20
1819.034371479282
  0
LWPOLYLINE
  5
81
100
AcDbEntity
  8
0
  6
ByLayer
 62
    2
370
   -1
100
AcDbPolyline
 90
   17
 70
    0
 43
0
 10
3317.878045296345
 20
1819.216303095938
 42
-0.2362172165162153
 10
3332.561505369532
 20
1824.05046299189
 10
3354.282936398445
 20
1820.80620999489
 42
-0.1251869431918734
 10
3361.348883783012
 20
1816.85803904425
 10
3367.745052074327
 20
1810.241464528636
 42
-0.1903886243688729
 10
3369.635404383259
 20
1805.456958235071
 10
3369.635404383259
 20
1792.484370133167
 42
-0.4142135623730667
 10
3362.635404383259
 20
1785.484370133167
 10
3315.044069058107
 20
1785.484370133167
 10
3315.044069058107
 20
1790.84524346384
 42
0.2840394112998398
 10
3313.938758652818
 20
1792.633966619925
 10
3312.574898125619
 20
1793.316146988739
 42
0.1164709921781401
 10
3311.680208530908
 20
1793.527423832654
 10
3310.154349888803
 20
1793.527423832654
 42
-0.414213562373095
 10
3303.154349888803
 20
1800.527423832654
 42
-0.1609736774954646
 10
3304.96206216013
 20
1804.684638820258
 10
3317.705987381325
 20
1819.034371479282
  0
LWPOLYLINE
  5
82
100
AcDbEntity
  8
0
  6
ByLayer
 62
    2
370
   -1
100
AcDbPolyline
 90
   17
 70
    0
 43
0
 10
3187.478045296345
 20
1819.216303095938
 42
-0.2362172165162133
 10
3202.161505369532
 20
1824.05046299189
 10
3223.882936398445
 20
1820.80620999489
 42
-0.1251869431918723
 10
3230.948883783013
 20
1816.85803904425
 10
3237.345052074328
 20
1810.241464528636
 42
-0.1903886243688677
 10
3239.235404383259
 20
1805.456958235071
 10
3239.235404383259
 20
1792.484370133167
 42
-0.4142135623730667
 10
3232.235404383259
 20
1785.484370133167
 10
3184.644069058107
 20
1785.484370133167
 10
3184.644069058107
 20
1790.84524346384
 42
0.2840394112998569
 10
3183.538758652818
 20
1792.633966619925
 10
3182.174898125619
 20
1793.316146988739
 42
0.1164709921781393
 10
3181.280208530907
 20
1793.527423832654
 10
3179.754349888804
 20
1793.527423832654
 42
-0.414213562373095
 10
3172.754349888804
 20
1800.527423832654
 42
-0.1609736774954599
 10
3174.56206216013
 20
1804.684638820258
 10
3187.305987381325
 20
1819.034371479282
  0
LWPOLYLINE
  5
83
100
AcDbEntity
  8
0
  6
ByLayer
 62
    2
370
   -1
100
AcDbPolyline
 90
   17
 70
    0
 43
0
 10
3094.898045296345
 20
1819.216303095938
 42
-0.2362172165162154
 10
3109.581505369533
 20
1824.05046299189
 10
3131.302936398445
 20
1820.80620999489
 42
-0.1251869431918723
 10
3138.368883783013
 20
1816.85803904425
 10
3144.765052074327
 20
1810.241464528636
 42
-0.190388624368873
 10
3146.65540438326
 20
1805.456958235071
 10
3146.65540438326
 20
1792.484370133167
 42
-0.4142135623730667
 10
3139.65540438326
 20
1785.484370133167
 10
3092.064069058107
 20
1785.484370133167
 10
3092.064069058107
 20
1790.84524346384
 42
0.2840394112998948
 10
3090.958758652818
 20
1792.633966619925
 10
3089.594898125619
 20
1793.316146988739
 42
0.1164709921781393
 10
3088.700208530907
 20
1793.527423832654
 10
3087.174349888804
 20
1793.527423832654
 42
-0.414213562373095
 10
3080.174349888804
 20
1800.527423832654
 42
-0.1609736774954599
 10
3081.98206216013
 20
1804.684638820258
 10
3094.725987381325
 20
1819.034371479282
  0
LWPOLYLINE
  5
84
100
AcDbEntity
  8
0
  6
ByLayer
 62
    2
370
   -1
100
AcDbPolyline
 90
   17
 70
    0
 43
0
 10
3002.408045296345
 20
1819.216303095938
 42
-0.2362172165162142
 10
3017.091505369533
 20
1824.05046299189
 10
3038.812936398445
 20
1820.80620999489
 42
-0.1251869431918723
 10
3045.878883783013
 20
1816.85803904425
 10
3052.275052074328
 20
1810.241464528636
 42
-0.1903886243688729
 10
3054.16540438326
 20
1805.456958235071
 10
3054.16540438326
 20
1792.484370133167
 42
-0.4142135623730667
 10
3047.16540438326
 20
1785.484370133167
 10
2999.574069058107
 20
1785.484370133167
 10
2999.574069058107
 20
1790.84524346384
 42
0.2840394112998698
 10
2998.468758652819
 20
1792.633966619925
 10
2997.104898125619
 20
1793.316146988739
 42
0.116470992178146
 10
2996.210208530908
 20
1793.527423832654
 10
2994.684349888804
 20
1793.527423832654
 42
-0.414213562373095
 10
2987.684349888803
 20
1800.527423832654
 42
-0.1609736774954691
 10
2989.49206216013
 20
1804.684638820258
 10
3002.235987381326
 20
1819.034371479282
  0
LWPOLYLINE
  5
85
100
AcDbEntity
  8
0
  6
ByLayer
 62
    2
370
   -1
100
AcDbPolyline
 90
   17
 70
    0
 43
0
 10
2843.858045296345
 20
1819.216303095938
 42
-0.2362172165162154
 10
2858.541505369533
 20
1824.05046299189
 10
2880.262936398445
 20
1820.80620999489
 42
-0.1251869431918723
 10
2887.328883783013
 20
1816.85803904425
 10
2893.725052074327
 20
1810.241464528636
 42
-0.190388624368873
 10
2895.61540438326
 20
1805.456958235071
 10
2895.61540438326
 20
1792.484370133167
 42
-0.4142135623730664
 10
2888.615404383259
 20
1785.484370133167
 10
2841.024069058107
 20
1785.484370133167
 10
2841.024069058107
 20
1790.84524346384
 42
0.2840394112998948
 10
2839.918758652818
 20
1792.633966619925
 10
2838.554898125619
 20
1793.316146988739
 42
0.1164709921781461
 10
2837.660208530908
 20
1793.527423832654
 10
2836.134349888803
 20
1793.527423832654
 42
-0.414213562373095
 10
2829.134349888804
 20
1800.527423832654
 42
-0.1609736774954645
 10
2830.94206216013
 20
1804.684638820258
 10
2843.685987381325
 20
1819.034371479282
  0
LWPOLYLINE
  5
86
100
AcDbEntity
  8
0
  6
ByLayer
 62
    2
370
   -1
100
AcDbPolyline
 90
   17
 70
    0
 43
0
 10
2751.368045296345
 20
1819.216303095938
 42
-0.2362172165162142
 10
2766.051505369533
 20
1824.05046299189
 10
2787.772936398445
 20
1820.80620999489
 42
-0.1251869431918723
 10
2794.838883783013
 20
1816.85803904425
 10
2801.235052074328
 20
1810.241464528636
 42
-0.1903886243688729
 10
2803.12540438326
 20
1805.456958235071
 10
2803.12540438326
 20
1792.484370133167
 42
-0.4142135623730667
 10
2796.12540438326
 20
1785.484370133167
 10
2748.534069058107
 20
1785.484370133167
 10
2748.534069058107
 20
1790.84524346384
 42
0.2840394112998569
 10
2747.428758652818
 20
1792.633966619925
 10
2746.064898125619
 20
1793.316146988739
 42
0.116470992178146
 10
2745.170208530908
 20
1793.527423832654
 10
2743.644349888804
 20
1793.527423832654
 42
-0.414213562373095
 10
2736.644349888803
 20
1800.527423832654
 42
-0.1609736774954691
 10
2738.45206216013
 20
1804.684638820258
 10
2751.195987381326
 20
1819.034371479282
  0
LWPOLYLINE
  5
87
100
AcDbEntity
  8
0
  6
ByLayer
 62
    2
370
   -1
100
AcDbPolyline
 90
   17
 70
    0
 43
0
 10
2658.788045296345
 20
1819.216303095938
 42
-0.2362172165162142
 10
2673.471505369533
 20
1824.05046299189
 10
2695.192936398445
 20
1820.80620999489
 42
-0.1251869431918723
 10
2702.258883783013
 20
1816.85803904425
 10
2708.655052074328
 20
1810.241464528636
 42
-0.1903886243688729
 10
2710.54540438326
 20
1805.456958235071
 10
2710.54540438326
 20
1792.484370133167
 42
-0.4142135623730667
 10
2703.54540438326
 20
1785.484370133167
 10
2655.954069058107
 20
1785.484370133167
 10
2655.954069058107
 20
1790.84524346384
 42
0.2840394112998698
 10
2654.848758652819
 20
1792.633966619925
 10
2653.484898125619
 20
1793.316146988739
 42
0.116470992178146
 10
2652.590208530908
 20
1793.527423832654
 10
2651.064349888804
 20
1793.527423832654
 42
-0.414213562373095
 10
2644.064349888803
 20
1800.527423832654
 42
-0.1609736774954691
 10
2645.87206216013
 20
1804.684638820258
 10
2658.615987381326
 20
1819.034371479282
  0
LWPOLYLINE
  5
88
100
AcDbEntity
  8
0
  6
ByLayer
 62
    2
370
   -1
100
AcDbPolyline
 90
   17
 70
    0
 43
0
 10
2528.388045296345
 20
1819.216303095938
 42
-0.2362172165162142
 10
2543.071505369533
 20
1824.05046299189
 10
2564.792936398446
 20
1820.80620999489
 42
-0.1251869431918725
 10
2571.858883783013
 20
1816.85803904425
 10
2578.255052074327
 20
1810.241464528636
 42
-0.190388624368873
 10
2580.14540438326
 20
1805.456958235071
 10
2580.14540438326
 20
1792.484370133167
 42
-0.4142135623730667
 10
2573.14540438326
 20
1785.484370133167
 10
2525.554069058107
 20
1785.484370133167
 10
2525.554069058107
 20
1790.84524346384
 42
0.2840394112998569
 10
2524.448758652818
 20
1792.633966619925
 10
2523.084898125619
 20
1793.316146988739
 42
0.116470992178146
 10
2522.190208530908
 20
1793.527423832654
 10
2520.664349888804
 20
1793.527423832654
 42
-0.414213562373095
 10
2513.664349888804
 20
1800.527423832654
 42
-0.1609736774954599
 10
2515.47206216013
 20
1804.684638820258
 10
2528.215987381325
 20
1819.034371479282
  0
LWPOLYLINE
  5
89
100
AcDbEntity
  8
0
  6
ByLayer
 62
    2
370
   -1
100
AcDbPolyline
 90
   17
 70
    0
 43
0
 10
2435.458045296345
 20
1819.216303095938
 42
-0.2362172165162142
 10
2450.141505369533
 20
1824.05046299189
 10
2471.862936398446
 20
1820.80620999489
 42
-0.1251869431918725
 10
2478.928883783013
 20
1816.85803904425
 10
2485.325052074328
 20
1810.241464528636
 42
-0.1903886243688729
 10
2487.21540438326
 20
1805.456958235071
 10
2487.21540438326
 20
1792.484370133167
 42
-0.4142135623730667
 10
2480.21540438326
 20
1785.484370133167
 10
2432.624069058107
 20
1785.484370133167
 10
2432.624069058107
 20
1790.84524346384
 42
0.2840394112998698
 10
2431.518758652819
 20
1792.633966619925
 10
2430.15489812562
 20
1793.316146988739
 42
0.1164709921781393
 10
2429.260208530908
 20
1793.527423832654
 10
2427.734349888804
 20
1793.527423832654
 42
-0.414213562373095
 10
2420.734349888804
 20
1800.527423832654
 42
-0.1609736774954691
 10
2422.54206216013
 20
1804.684638820258
 10
2435.285987381325
 20
1819.034371479282
  0
LWPOLYLINE
  5
8A
100
AcDbEntity
  8
0
  6
ByLayer
 62
    2
370
   -1
100
AcDbPolyline
 90
   17
 70
    0
 43
0
 10
2342.088045296346
 20
1819.216303095938
 42
-0.2362172165162133
 10
2356.771505369533
 20
1824.05046299189
 10
2378.492936398446
 20
1820.80620999489
 42
-0.1251869431918734
 10
2385.558883783013
 20
1816.85803904425
 10
2391.955052074328
 20
1810.241464528636
 42
-0.1903886243688729
 10
2393.84540438326
 20
1805.456958235071
 10
2393.84540438326
 20
1792.484370133167
 42
-0.4142135623730667
 10
2386.84540438326
 20
1785.484370133167
 10
2339.254069058107
 20
1785.484370133167
 10
2339.254069058107
 20
1790.84524346384
 42
0.2840394112998866
 10
2338.148758652819
 20
1792.633966619925
 10
2336.784898125619
 20
1793.316146988739
 42
0.116470992178146
 10
2335.890208530908
 20
1793.527423832654
 10
2334.364349888804
 20
1793.527423832654
 42
-0.414213562373095
 10
2327.364349888804
 20
1800.527423832654
 42
-0.16097367749546
 10
2329.172062160131
 20
1804.684638820258
 10
2341.915987381326
 20
1819.034371479282
  0
LWPOLYLINE
  5
8B
100
AcDbEntity
  8
0
  6
ByLayer
 62
    2
370
   -1
100
AcDbPolyline
 90
   17
 70
    0
 43
0
 10
3410.808045296345
 20
1678.566303095937
 42
-0.2362172165162142
 10
3425.491505369532
 20
1683.40046299189
 10
3447.212936398445
 20
1680.15620999489
 42
-0.1251869431918732
 10
3454.278883783012
 20
1676.208039044249
 10
3460.675052074327
 20
1669.591464528636
 42
-0.1903886243688782
 10
3462.565404383259
 20
1664.806958235071
 10
3462.565404383259
 20
1651.834370133167
 42
-0.4142135623730667
 10
3455.565404383259
 20
1644.834370133167
 10
3407.974069058107
 20
1644.834370133167
 10
3407.974069058107
 20
1650.19524346384
 42
0.2840394112998698
 10
3406.868758652819
 20
1651.983966619925
 10
3405.504898125619
 20
1652.666146988738
 42
0.1164709921781415
 10
3404.610208530908
 20
1652.877423832654
 10
3403.084349888803
 20
1652.877423832654
 42
-0.414213562373095
 10
3396.084349888803
 20
1659.877423832654
 42
-0.1609736774954693
 10
3397.89206216013
 20
1664.034638820258
 10
3410.635987381325
 20
1678.384371479281
  0
LWPOLYLINE
  5
8C
100
AcDbEntity
  8
0
  6
ByLayer
 62
    2
370
   -1
100
AcDbPolyline
 90
   17
 70
    0
 43
0
 10
3317.878045296345
 20
1678.566303095937
 42
-0.2362172165162153
 10
3332.561505369532
 20
1683.40046299189
 10
3354.282936398445
 20
1680.15620999489
 42
-0.1251869431918741
 10
3361.348883783012
 20
1676.208039044249
 10
3367.745052074327
 20
1669.591464528636
 42
-0.1903886243688782
 10
3369.635404383259
 20
1664.806958235071
 10
3369.635404383259
 20
1651.834370133167
 42
-0.4142135623730667
 10
3362.635404383259
 20
1644.834370133167
 10
3315.044069058107
 20
1644.834370133167
 10
3315.044069058107
 20
1650.19524346384
 42
0.2840394112998398
 10
3313.938758652818
 20
1651.983966619925
 10
3312.574898125619
 20
1652.666146988738
 42
0.1164709921781355
 10
3311.680208530908
 20
1652.877423832654
 10
3310.154349888803
 20
1652.877423832654
 42
-0.414213562373095
 10
3303.154349888803
 20
1659.877423832654
 42
-0.1609736774954646
 10
3304.96206216013
 20
1664.034638820258
 10
3317.705987381325
 20
1678.384371479281
  0
LWPOLYLINE
  5
8D
100
AcDbEntity
  8
0
  6
ByLayer
 62
    2
370
   -1
100
AcDbPolyline
 90
   17
 70
    0
 43
0
 10
3187.478045296345
 20
1678.566303095937
 42
-0.2362172165162133
 10
3202.161505369532
 20
1683.40046299189
 10
3223.882936398445
 20
1680.15620999489
 42
-0.1251869431918728
 10
3230.948883783013
 20
1676.208039044249
 10
3237.345052074328
 20
1669.591464528636
 42
-0.1903886243688732
 10
3239.235404383259
 20
1664.806958235071
 10
3239.235404383259
 20
1651.834370133167
 42
-0.4142135623730667
 10
3232.235404383259
 20
1644.834370133167
 10
3184.644069058107
 20
1644.834370133167
 10
3184.644069058107
 20
1650.19524346384
 42
0.2840394112998569
 10
3183.538758652818
 20
1651.983966619925
 10
3182.174898125619
 20
1652.666146988738
 42
0.1164709921781346
 10
3181.280208530907
 20
1652.877423832654
 10
3179.754349888804
 20
1652.877423832654
 42
-0.414213562373095
 10
3172.754349888804
 20
1659.877423832654
 42
-0.1609736774954599
 10
3174.56206216013
 20
1664.034638820258
 10
3187.305987381325
 20
1678.384371479281
  0
LWPOLYLINE
  5
8E
100
AcDbEntity
  8
0
  6
ByLayer
 62
    2
370
   -1
100
AcDbPolyline
 90
   17
 70
    0
 43
0
 10
3094.898045296345
 20
1678.566303095937
 42
-0.2362172165162152
 10
3109.581505369533
 20
1683.40046299189
 10
3131.302936398445
 20
1680.15620999489
 42
-0.1251869431918728
 10
3138.368883783013
 20
1676.208039044249
 10
3144.765052074327
 20
1669.591464528636
 42
-0.1903886243688783
 10
3146.65540438326
 20
1664.806958235071
 10
3146.65540438326
 20
1651.834370133167
 42
-0.4142135623730667
 10
3139.65540438326
 20
1644.834370133167
 10
3092.064069058107
 20
1644.834370133167
 10
3092.064069058107
 20
1650.19524346384
 42
0.2840394112998948
 10
3090.958758652818
 20
1651.983966619925
 10
3089.594898125619
 20
1652.666146988738
 42
0.1164709921781346
 10
3088.700208530907
 20
1652.877423832654
 10
3087.174349888804
 20
1652.877423832654
 42
-0.414213562373095
 10
3080.174349888804
 20
1659.877423832654
 42
-0.1609736774954599
 10
3081.98206216013
 20
1664.034638820258
 10
3094.725987381325
 20
1678.384371479281
  0
LWPOLYLINE
  5
8F
100
AcDbEntity
  8
0
  6
ByLayer
 62
    2
370
   -1
100
AcDbPolyline
 90
   17
 70
    0
 43
0
 10
3002.408045296345
 20
1678.566303095937
 42
-0.2362172165162144
 10
3017.091505369533
 20
1683.40046299189
 10
3038.812936398445
 20
1680.15620999489
 42
-0.1251869431918728
 10
3045.878883783013
 20
1676.208039044249
 10
3052.275052074328
 20
1669.591464528636
 42
-0.1903886243688782
 10
3054.16540438326
 20
1664.806958235071
 10
3054.16540438326
 20
1651.834370133167
 42
-0.4142135623730667
 10
3047.16540438326
 20
1644.834370133167
 10
2999.574069058107
 20
1644.834370133167
 10
2999.574069058107
 20
1650.19524346384
 42
0.2840394112998698
 10
2998.468758652819
 20
1651.983966619925
 10
2997.104898125619
 20
1652.666146988738
 42
0.1164709921781415
 10
2996.210208530908
 20
1652.877423832654
 10
2994.684349888804
 20
1652.877423832654
 42
-0.414213562373095
 10
2987.684349888803
 20
1659.877423832654
 42
-0.1609736774954691
 10
2989.49206216013
 20
1664.034638820258
 10
3002.235987381326
 20
1678.384371479281
  0
LWPOLYLINE
  5
90
100
AcDbEntity
  8
0
  6
ByLayer
 62
    2
370
   -1
100
AcDbPolyline
 90
   17
 70
    0
 43
0
 10
2843.858045296345
 20
1678.566303095937
 42
-0.2362172165162152
 10
2858.541505369533
 20
1683.40046299189
 10
2880.262936398445
 20
1680.15620999489
 42
-0.1251869431918728
 10
2887.328883783013
 20
1676.208039044249
 10
2893.725052074327
 20
1669.591464528636
 42
-0.1903886243688783
 10
2895.61540438326
 20
1664.806958235071
 10
2895.61540438326
 20
1651.834370133167
 42
-0.4142135623730664
 10
2888.615404383259
 20
1644.834370133167
 10
2841.024069058107
 20
1644.834370133167
 10
2841.024069058107
 20
1650.19524346384
 42
0.2840394112998948
 10
2839.918758652818
 20
1651.983966619925
 10
2838.554898125619
 20
1652.666146988738
 42
0.1164709921781415
 10
2837.660208530908
 20
1652.877423832654
 10
2836.134349888803
 20
1652.877423832654
 42
-0.414213562373095
 10
2829.134349888804
 20
1659.877423832654
 42
-0.1609736774954645
 10
2830.94206216013
 20
1664.034638820258
 10
2843.685987381325
 20
1678.384371479281
  0
LWPOLYLINE
  5
91
100
AcDbEntity
  8
0
  6
ByLayer
 62
    2
370
   -1
100
AcDbPolyline
 90
   17
 70
    0
 43
0
 10
2751.368045296345
 20
1678.566303095937
 42
-0.2362172165162144
 10
2766.051505369533
 20
1683.40046299189
 10
2787.772936398445
 20
1680.15620999489
 42
-0.1251869431918728
 10
2794.838883783013
 20
1676.208039044249
 10
2801.235052074328
 20
1669.591464528636
 42
-0.1903886243688782
 10
2803.12540438326
 20
1664.806958235071
 10
2803.12540438326
 20
1651.834370133167
 42
-0.4142135623730667
 10
2796.12540438326
 20
1644.834370133167
 10
2748.534069058107
 20
1644.834370133167
 10
2748.534069058107
 20
1650.19524346384
 42
0.2840394112998569
 10
2747.428758652818
 20
1651.983966619925
 10
2746.064898125619
 20
1652.666146988738
 42
0.1164709921781415
 10
2745.170208530908
 20
1652.877423832654
 10
2743.644349888804
 20
1652.877423832654
 42
-0.414213562373095
 10
2736.644349888803
 20
1659.877423832654
 42
-0.1609736774954691
 10
2738.45206216013
 20
1664.034638820258
 10
2751.195987381326
 20
1678.384371479281
  0
LWPOLYLINE
  5
92
100
AcDbEntity
  8
0
  6
ByLayer
 62
    2
370
   -1
100
AcDbPolyline
 90
   17
 70
    0
 43
0
 10
2658.788045296345
 20
1678.566303095937
 42
-0.2362172165162144
 10
2673.471505369533
 20
1683.40046299189
 10
2695.192936398445
 20
1680.15620999489
 42
-0.1251869431918728
 10
2702.258883783013
 20
1676.208039044249
 10
2708.655052074328
 20
1669.591464528636
 42
-0.1903886243688782
 10
2710.54540438326
 20
1664.806958235071
 10
2710.54540438326
 20
1651.834370133167
 42
-0.4142135623730667
 10
2703.54540438326
 20
1644.834370133167
 10
2655.954069058107
 20
1644.834370133167
 10
2655.954069058107
 20
1650.19524346384
 42
0.2840394112998698
 10
2654.848758652819
 20
1651.983966619925
 10
2653.484898125619
 20
1652.666146988738
 42
0.1164709921781415
 10
2652.590208530908
 20
1652.877423832654
 10
2651.064349888804
 20
1652.877423832654
 42
-0.414213562373095
 10
2644.064349888803
 20
1659.877423832654
 42
-0.1609736774954691
 10
2645.87206216013
 20
1664.034638820258
 10
2658.615987381326
 20
1678.384371479281
  0
LWPOLYLINE
  5
93
100
AcDbEntity
  8
0
  6
ByLayer
 62
    2
370
   -1
100
AcDbPolyline
 90
   17
 70
    0
 43
0
 10
2528.388045296345
 20
1678.566303095937
 42
-0.2362172165162144
 10
2543.071505369533
 20
1683.40046299189
 10
2564.792936398446
 20
1680.15620999489
 42
-0.1251869431918732
 10
2571.858883783013
 20
1676.208039044249
 10
2578.255052074327
 20
1669.591464528636
 42
-0.1903886243688783
 10
2580.14540438326
 20
1664.806958235071
 10
2580.14540438326
 20
1651.834370133167
 42
-0.4142135623730667
 10
2573.14540438326
 20
1644.834370133167
 10
2525.554069058107
 20
1644.834370133167
 10
2525.554069058107
 20
1650.19524346384
 42
0.2840394112998569
 10
2524.448758652818
 20
1651.983966619925
 10
2523.084898125619
 20
1652.666146988738
 42
0.1164709921781415
 10
2522.190208530908
 20
1652.877423832654
 10
2520.664349888804
 20
1652.877423832654
 42
-0.414213562373095
 10
2513.664349888804
 20
1659.877423832654
 42
-0.1609736774954599
 10
2515.47206216013
 20
1664.034638820258
 10
2528.215987381325
 20
1678.384371479281
  0
LWPOLYLINE
  5
94
100
AcDbEntity
  8
0
  6
ByLayer
 62
    2
370
   -1
100
AcDbPolyline
 90
   17
 70
    0
 43
0
 10
2435.458045296345
 20
1678.566303095937
 42
-0.2362172165162144
 10
2450.141505369533
 20
1683.40046299189
 10
2471.862936398446
 20
1680.15620999489
 42
-0.1251869431918732
 10
2478.928883783013
 20
1676.208039044249
 10
2485.325052074328
 20
1669.591464528636
 42
-0.1903886243688782
 10
2487.21540438326
 20
1664.806958235071
 10
2487.21540438326
 20
1651.834370133167
 42
-0.4142135623730667
 10
2480.21540438326
 20
1644.834370133167
 10
2432.624069058107
 20
1644.834370133167
 10
2432.624069058107
 20
1650.19524346384
 42
0.2840394112998698
 10
2431.518758652819
 20
1651.983966619925
 10
2430.15489812562
 20
1652.666146988738
 42
0.1164709921781346
 10
2429.260208530908
 20
1652.877423832654
 10
2427.734349888804
 20
1652.877423832654
 42
-0.414213562373095
 10
2420.734349888804
 20
1659.877423832654
 42
-0.1609736774954691
 10
2422.54206216013
 20
1664.034638820258
 10
2435.285987381325
 20
1678.384371479281
  0
LWPOLYLINE
  5
95
100
AcDbEntity
  8
0
  6
ByLayer
 62
    2
370
   -1
100
AcDbPolyline
 90
   17
 70
    0
 43
0
 10
2342.088045296346
 20
1678.566303095937
 42
-0.2362172165162133
 10
2356.771505369533
 20
1683.40046299189
 10
2378.492936398446
 20
1680.15620999489
 42
-0.1251869431918741
 10
2385.558883783013
 20
1676.208039044249
 10
2391.955052074328
 20
1669.591464528636
 42
-0.1903886243688782
 10
2393.84540438326
 20
1664.806958235071
 10
2393.84540438326
 20
1651.834370133167
 42
-0.4142135623730667
 10
2386.84540438326
 20
1644.834370133167
 10
2339.254069058107
 20
1644.834370133167
 10
2339.254069058107
 20
1650.19524346384
 42
0.2840394112998866
 10
2338.148758652819
 20
1651.983966619925
 10
2336.784898125619
 20
1652.666146988738
 42
0.1164709921781415
 10
2335.890208530908
 20
1652.877423832654
 10
2334.364349888804
 20
1652.877423832654
 42
-0.414213562373095
 10
2327.364349888804
 20
1659.877423832654
 42
-0.16097367749546
 10
2329.172062160131
 20
1664.034638820258
 10
2341.915987381326
 20
1678.384371479281
  0
LWPOLYLINE
  5
96
100
AcDbEntity
  8
0
  6
ByLayer
 62
    2
370
   -1
100
AcDbPolyline
 90
   17
 70
    0
 43
0
 10
3504.178045296344
 20
1455.466303095938
 42
-0.2362172165162142
 10
3518.861505369532
 20
1460.30046299189
 10
3540.582936398446
 20
1457.05620999489
 42
-0.1251869431918725
 10
3547.648883783013
 20
1453.10803904425
 10
3554.045052074327
 20
1446.491464528637
 42
-0.1903886243688677
 10
3555.935404383259
 20
1441.706958235071
 10
3555.935404383259
 20
1428.734370133167
 42
-0.4142135623730667
 10
3548.935404383259
 20
1421.734370133167
 10
3501.344069058106
 20
1421.734370133167
 10
3501.344069058106
 20
1427.09524346384
 42
0.2840394112998698
 10
3500.238758652818
 20
1428.883966619925
 10
3498.874898125619
 20
1429.566146988739
 42
0.1164709921781393
 10
3497.980208530907
 20
1429.777423832654
 10
3496.454349888804
 20
1429.777423832654
 42
-0.414213562373095
 10
3489.454349888802
 20
1436.777423832654
 42
-0.1609736774954693
 10
3491.26206216013
 20
1440.934638820258
 10
3504.005987381325
 20
1455.284371479281
  0
LWPOLYLINE
  5
97
100
AcDbEntity
  8
0
  6
ByLayer
 62
    2
370
   -1
100
AcDbPolyline
 90
   17
 70
    0
 43
0
 10
3410.808045296345
 20
1455.466303095938
 42
-0.2362172165162142
 10
3425.491505369532
 20
1460.30046299189
 10
3447.212936398445
 20
1457.05620999489
 42
-0.1251869431918725
 10
3454.278883783012
 20
1453.10803904425
 10
3460.675052074327
 20
1446.491464528637
 42
-0.1903886243688677
 10
3462.565404383259
 20
1441.706958235071
 10
3462.565404383259
 20
1428.734370133167
 42
-0.4142135623730667
 10
3455.565404383259
 20
1421.734370133167
 10
3407.974069058107
 20
1421.734370133167
 10
3407.974069058107
 20
1427.09524346384
 42
0.2840394112998698
 10
3406.868758652819
 20
1428.883966619925
 10
3405.504898125619
 20
1429.566146988739
 42
0.116470992178146
 10
3404.610208530908
 20
1429.777423832654
 10
3403.084349888803
 20
1429.777423832654
 42
-0.414213562373095
 10
3396.084349888803
 20
1436.777423832654
 42
-0.1609736774954693
 10
3397.89206216013
 20
1440.934638820258
 10
3410.635987381325
 20
1455.284371479281
  0
LWPOLYLINE
  5
98
100
AcDbEntity
  8
0
  6
ByLayer
 62
    2
370
   -1
100
AcDbPolyline
 90
   17
 70
    0
 43
0
 10
3317.878045296345
 20
1455.466303095938
 42
-0.2362172165162153
 10
3332.561505369532
 20
1460.30046299189
 10
3354.282936398445
 20
1457.05620999489
 42
-0.1251869431918734
 10
3361.348883783012
 20
1453.10803904425
 10
3367.745052074327
 20
1446.491464528637
 42
-0.1903886243688677
 10
3369.635404383259
 20
1441.706958235071
 10
3369.635404383259
 20
1428.734370133167
 42
-0.4142135623730667
 10
3362.635404383259
 20
1421.734370133167
 10
3315.044069058107
 20
1421.734370133167
 10
3315.044069058107
 20
1427.09524346384
 42
0.2840394112998398
 10
3313.938758652818
 20
1428.883966619925
 10
3312.574898125619
 20
1429.566146988739
 42
0.1164709921781401
 10
3311.680208530908
 20
1429.777423832654
 10
3310.154349888803
 20
1429.777423832654
 42
-0.414213562373095
 10
3303.154349888803
 20
1436.777423832654
 42
-0.1609736774954646
 10
3304.96206216013
 20
1440.934638820258
 10
3317.705987381325
 20
1455.284371479281
  0
LWPOLYLINE
  5
99
100
AcDbEntity
  8
0
  6
ByLayer
 62
    2
370
   -1
100
AcDbPolyline
 90
   17
 70
    0
 43
0
 10
3187.478045296345
 20
1455.466303095938
 42
-0.2362172165162133
 10
3202.161505369532
 20
1460.30046299189
 10
3223.882936398445
 20
1457.05620999489
 42
-0.1251869431918723
 10
3230.948883783013
 20
1453.10803904425
 10
3237.345052074328
 20
1446.491464528637
 42
-0.1903886243688626
 10
3239.235404383258
 20
1441.706958235071
 10
3239.235404383259
 20
1428.734370133167
 42
-0.4142135623730667
 10
3232.235404383259
 20
1421.734370133167
 10
3184.644069058107
 20
1421.734370133167
 10
3184.644069058107
 20
1427.09524346384
 42
0.2840394112998569
 10
3183.538758652818
 20
1428.883966619925
 10
3182.174898125619
 20
1429.566146988739
 42
0.1164709921781393
 10
3181.280208530907
 20
1429.777423832654
 10
3179.754349888804
 20
1429.777423832654
 42
-0.414213562373095
 10
3172.754349888804
 20
1436.777423832654
 42
-0.1609736774954599
 10
3174.56206216013
 20
1440.934638820258
 10
3187.305987381325
 20
1455.284371479281
  0
LWPOLYLINE
  5
9A
100
AcDbEntity
  8
0
  6
ByLayer
 62
    2
370
   -1
100
AcDbPolyline
 90
   17
 70
    0
 43
0
 10
3094.898045296345
 20
1455.466303095938
 42
-0.2362172165162154
 10
3109.581505369533
 20
1460.30046299189
 10
3131.302936398445
 20
1457.05620999489
 42
-0.1251869431918723
 10
3138.368883783013
 20
1453.10803904425
 10
3144.765052074327
 20
1446.491464528637
 42
-0.1903886243688676
 10
3146.65540438326
 20
1441.706958235071
 10
3146.65540438326
 20
1428.734370133167
 42
-0.4142135623730667
 10
3139.65540438326
 20
1421.734370133167
 10
3092.064069058107
 20
1421.734370133167
 10
3092.064069058107
 20
1427.09524346384
 42
0.2840394112998948
 10
3090.958758652818
 20
1428.883966619925
 10
3089.594898125619
 20
1429.566146988739
 42
0.1164709921781393
 10
3088.700208530907
 20
1429.777423832654
 10
3087.174349888804
 20
1429.777423832654
 42
-0.414213562373095
 10
3080.174349888804
 20
1436.777423832654
 42
-0.1609736774954599
 10
3081.98206216013
 20
1440.934638820258
 10
3094.725987381325
 20
1455.284371479281
  0
LWPOLYLINE
  5
9B
100
AcDbEntity
  8
0
  6
ByLayer
 62
    2
370
   -1
100
AcDbPolyline
 90
   17
 70
    0
 43
0
 10
3002.408045296345
 20
1455.466303095938
 42
-0.2362172165162142
 10
3017.091505369533
 20
1460.30046299189
 10
3038.812936398445
 20
1457.05620999489
 42
-0.1251869431918723
 10
3045.878883783013
 20
1453.10803904425
 10
3052.275052074328
 20
1446.491464528637
 42
-0.1903886243688677
 10
3054.16540438326
 20
1441.706958235071
 10
3054.16540438326
 20
1428.734370133167
 42
-0.4142135623730667
 10
3047.16540438326
 20
1421.734370133167
 10
2999.574069058107
 20
1421.734370133167
 10
2999.574069058107
 20
1427.09524346384
 42
0.2840394112998698
 10
2998.468758652819
 20
1428.883966619925
 10
2997.104898125619
 20
1429.566146988739
 42
0.116470992178146
 10
2996.210208530908
 20
1429.777423832654
 10
2994.684349888804
 20
1429.777423832654
 42
-0.414213562373095
 10
2987.684349888803
 20
1436.777423832654
 42
-0.1609736774954691
 10
2989.49206216013
 20
1440.934638820258
 10
3002.235987381326
 20
1455.284371479281
  0
LWPOLYLINE
  5
9C
100
AcDbEntity
  8
0
  6
ByLayer
 62
    2
370
   -1
100
AcDbPolyline
 90
   17
 70
    0
 43
0
 10
2843.858045296345
 20
1455.466303095938
 42
-0.2362172165162154
 10
2858.541505369533
 20
1460.30046299189
 10
2880.262936398445
 20
1457.05620999489
 42
-0.1251869431918723
 10
2887.328883783013
 20
1453.10803904425
 10
2893.725052074327
 20
1446.491464528637
 42
-0.1903886243688676
 10
2895.61540438326
 20
1441.706958235071
 10
2895.61540438326
 20
1428.734370133167
 42
-0.4142135623730664
 10
2888.615404383259
 20
1421.734370133167
 10
2841.024069058107
 20
1421.734370133167
 10
2841.024069058107
 20
1427.09524346384
 42
0.2840394112998948
 10
2839.918758652818
 20
1428.883966619925
 10
2838.554898125619
 20
1429.566146988739
 42
0.1164709921781461
 10
2837.660208530908
 20
1429.777423832654
 10
2836.134349888803
 20
1429.777423832654
 42
-0.414213562373095
 10
2829.134349888804
 20
1436.777423832654
 42
-0.1609736774954645
 10
2830.94206216013
 20
1440.934638820258
 10
2843.685987381325
 20
1455.284371479281
  0
LWPOLYLINE
  5
9D
100
AcDbEntity
  8
0
  6
ByLayer
 62
    2
370
   -1
100
AcDbPolyline
 90
   17
 70
    0
 43
0
 10
2751.368045296345
 20
1455.466303095938
 42
-0.2362172165162142
 10
2766.051505369533
 20
1460.30046299189
 10
2787.772936398445
 20
1457.05620999489
 42
-0.1251869431918723
 10
2794.838883783013
 20
1453.10803904425
 10
2801.235052074328
 20
1446.491464528637
 42
-0.1903886243688677
 10
2803.12540438326
 20
1441.706958235071
 10
2803.12540438326
 20
1428.734370133167
 42
-0.4142135623730667
 10
2796.12540438326
 20
1421.734370133167
 10
2748.534069058107
 20
1421.734370133167
 10
2748.534069058107
 20
1427.09524346384
 42
0.2840394112998569
 10
2747.428758652818
 20
1428.883966619925
 10
2746.064898125619
 20
1429.566146988739
 42
0.116470992178146
 10
2745.170208530908
 20
1429.777423832654
 10
2743.644349888804
 20
1429.777423832654
 42
-0.414213562373095
 10
2736.644349888803
 20
1436.777423832654
 42
-0.1609736774954691
 10
2738.45206216013
 20
1440.934638820258
 10
2751.195987381326
 20
1455.284371479281
  0
LWPOLYLINE
  5
9E
100
AcDbEntity
  8
0
  6
ByLayer
 62
    2
370
   -1
100
AcDbPolyline
 90
   17
 70
    0
 43
0
 10
2658.788045296345
 20
1455.466303095938
 42
-0.2362172165162142
 10
2673.471505369533
 20
1460.30046299189
 10
2695.192936398445
 20
1457.05620999489
 42
-0.1251869431918723
 10
2702.258883783013
 20
1453.10803904425
 10
2708.655052074328
 20
1446.491464528637
 42
-0.1903886243688677
 10
2710.54540438326
 20
1441.706958235071
 10
2710.54540438326
 20
1428.734370133167
 42
-0.4142135623730667
 10
2703.54540438326
 20
1421.734370133167
 10
2655.954069058107
 20
1421.734370133167
 10
2655.954069058107
 20
1427.09524346384
 42
0.2840394112998698
 10
2654.848758652819
 20
1428.883966619925
 10
2653.484898125619
 20
1429.566146988739
 42
0.116470992178146
 10
2652.590208530908
 20
1429.777423832654
 10
2651.064349888804
 20
1429.777423832654
 42
-0.414213562373095
 10
2644.064349888803
 20
1436.777423832654
 42
-0.1609736774954691
 10
2645.87206216013
 20
1440.934638820258
 10
2658.615987381326
 20
1455.284371479281
  0
LWPOLYLINE
  5
9F
100
AcDbEntity
  8
0
  6
ByLayer
 62
    2
370
   -1
100
AcDbPolyline
 90
   17
 70
    0
 43
0
 10
2528.388045296345
 20
1455.466303095938
 42
-0.2362172165162142
 10
2543.071505369533
 20
1460.30046299189
 10
2564.792936398446
 20
1457.05620999489
 42
-0.1251869431918725
 10
2571.858883783013
 20
1453.10803904425
 10
2578.255052074327
 20
1446.491464528637
 42
-0.1903886243688676
 10
2580.14540438326
 20
1441.706958235071
 10
2580.14540438326
 20
1428.734370133167
 42
-0.4142135623730667
 10
2573.14540438326
 20
1421.734370133167
 10
2525.554069058107
 20
1421.734370133167
 10
2525.554069058107
 20
1427.09524346384
 42
0.2840394112998569
 10
2524.448758652818
 20
1428.883966619925
 10
2523.084898125619
 20
1429.566146988739
 42
0.116470992178146
 10
2522.190208530908
 20
1429.777423832654
 10
2520.664349888804
 20
1429.777423832654
 42
-0.414213562373095
 10
2513.664349888804
 20
1436.777423832654
 42
-0.1609736774954599
 10
2515.47206216013
 20
1440.934638820258
 10
2528.215987381325
 20
1455.284371479281
  0
LWPOLYLINE
  5
A0
100
AcDbEntity
  8
0
  6
ByLayer
 62
    2
370
   -1
100
AcDbPolyline
 90
   17
 70
    0
 43
0
 10
2435.458045296345
 20
1455.466303095938
 42
-0.2362172165162142
 10
2450.141505369533
 20
1460.30046299189
 10
2471.862936398446
 20
1457.05620999489
 42
-0.1251869431918725
 10
2478.928883783013
 20
1453.10803904425
 10
2485.325052074328
 20
1446.491464528637
 42
-0.1903886243688677
 10
2487.21540438326
 20
1441.706958235071
 10
2487.21540438326
 20
1428.734370133167
 42
-0.4142135623730667
 10
2480.21540438326
 20
1421.734370133167
 10
2432.624069058107
 20
1421.734370133167
 10
2432.624069058107
 20
1427.09524346384
 42
0.2840394112998698
 10
2431.518758652819
 20
1428.883966619925
 10
2430.15489812562
 20
1429.566146988739
 42
0.1164709921781393
 10
2429.260208530908
 20
1429.777423832654
 10
2427.734349888804
 20
1429.777423832654
 42
-0.414213562373095
 10
2420.734349888804
 20
1436.777423832654
 42
-0.1609736774954691
 10
2422.54206216013
 20
1440.934638820258
 10
2435.285987381325
 20
1455.284371479281
  0
LWPOLYLINE
  5
A1
100
AcDbEntity
  8
0
  6
ByLayer
 62
    2
370
   -1
100
AcDbPolyline
 90
   17
 70
    0
 43
0
 10
2342.088045296346
 20
1455.466303095938
 42
-0.2362172165162133
 10
2356.771505369533
 20
1460.30046299189
 10
2378.492936398446
 20
1457.05620999489
 42
-0.1251869431918734
 10
2385.558883783013
 20
1453.10803904425
 10
2391.955052074328
 20
1446.491464528637
 42
-0.1903886243688677
 10
2393.84540438326
 20
1441.706958235071
 10
2393.84540438326
 20
1428.734370133167
 42
-0.4142135623730667
 10
2386.84540438326
 20
1421.734370133167
 10
2339.254069058107
 20
1421.734370133167
 10
2339.254069058107
 20
1427.09524346384
 42
0.2840394112998866
 10
2338.148758652819
 20
1428.883966619925
 10
2336.784898125619
 20
1429.566146988739
 42
0.116470992178146
 10
2335.890208530908
 20
1429.777423832654
 10
2334.364349888804
 20
1429.777423832654
 42
-0.414213562373095
 10
2327.364349888804
 20
1436.777423832654
 42
-0.16097367749546
 10
2329.172062160131
 20
1440.934638820258
 10
2341.915987381326
 20
1455.284371479281
  0
LWPOLYLINE
  5
A2
100
AcDbEntity
  8
0
  6
ByLayer
 62
    2
370
   -1
100
AcDbPolyline
 90
   17
 70
    0
 43
0
 10
3504.178045296344
 20
1314.816303095938
 42
-0.2362172165162168
 10
3518.861505369532
 20
1319.65046299189
 10
3540.582936398446
 20
1316.40620999489
 42
-0.1251869431918732
 10
3547.648883783013
 20
1312.458039044249
 10
3554.045052074327
 20
1305.841464528636
 42
-0.1903886243688782
 10
3555.935404383259
 20
1301.056958235071
 10
3555.935404383259
 20
1288.084370133167
 42
-0.4142135623730667
 10
3548.935404383259
 20
1281.084370133167
 10
3501.344069058106
 20
1281.084370133167
 10
3501.344069058106
 20
1286.44524346384
 42
0.2840394112998698
 10
3500.238758652818
 20
1288.233966619925
 10
3498.874898125619
 20
1288.916146988739
 42
0.1164709921781378
 10
3497.980208530907
 20
1289.127423832653
 10
3496.454349888804
 20
1289.127423832653
 42
-0.414213562373095
 10
3489.454349888802
 20
1296.127423832653
 42
-0.1609736774954696
 10
3491.26206216013
 20
1300.284638820258
 10
3504.005987381325
 20
1314.634371479281
  0
LWPOLYLINE
  5
A3
100
AcDbEntity
  8
0
  6
ByLayer
 62
    2
370
   -1
100
AcDbPolyline
 90
   17
 70
    0
 43
0
 10
3504.178045296344
 20
1174.166303095937
 42
-0.2362172165162168
 10
3518.861505369532
 20
1179.000462991889
 10
3540.582936398446
 20
1175.75620999489
 42
-0.1251869431918732
 10
3547.648883783013
 20
1171.808039044249
 10
3554.045052074327
 20
1165.191464528636
 42
-0.1903886243688751
 10
3555.935404383259
 20
1160.406958235071
 10
3555.935404383259
 20
1147.434370133167
 42
-0.4142135623730664
 10
3548.935404383259
 20
1140.434370133166
 10
3501.344069058106
 20
1140.434370133166
 10
3501.344069058106
 20
1145.79524346384
 42
0.2840394112999111
 10
3500.238758652818
 20
1147.583966619925
 10
3498.874898125619
 20
1148.266146988738
 42
0.1164709921781393
 10
3497.980208530907
 20
1148.477423832653
 10
3496.454349888804
 20
1148.477423832653
 42
-0.414213562373095
 10
3489.454349888803
 20
1155.477423832653
 42
-0.1609736774954663
 10
3491.26206216013
 20
1159.634638820258
 10
3504.005987381325
 20
1173.984371479281
  0
LWPOLYLINE
  5
A4
100
AcDbEntity
  8
0
  6
ByLayer
 62
    2
370
   -1
100
AcDbPolyline
 90
   17
 70
    0
 43
0
 10
3410.808045296345
 20
1314.816303095938
 42
-0.2362172165162167
 10
3425.491505369532
 20
1319.65046299189
 10
3447.212936398445
 20
1316.40620999489
 42
-0.1251869431918732
 10
3454.278883783012
 20
1312.458039044249
 10
3460.675052074327
 20
1305.841464528636
 42
-0.1903886243688782
 10
3462.565404383259
 20
1301.056958235071
 10
3462.565404383259
 20
1288.084370133167
 42
-0.4142135623730667
 10
3455.565404383259
 20
1281.084370133167
 10
3407.974069058107
 20
1281.084370133167
 10
3407.974069058107
 20
1286.44524346384
 42
0.2840394112998698
 10
3406.868758652819
 20
1288.233966619925
 10
3405.504898125619
 20
1288.916146988739
 42
0.1164709921781447
 10
3404.610208530908
 20
1289.127423832653
 10
3403.084349888803
 20
1289.127423832653
 42
-0.414213562373095
 10
3396.084349888803
 20
1296.127423832653
 42
-0.1609736774954696
 10
3397.89206216013
 20
1300.284638820258
 10
3410.635987381325
 20
1314.634371479281
  0
LWPOLYLINE
  5
A5
100
AcDbEntity
  8
0
  6
ByLayer
 62
    2
370
   -1
100
AcDbPolyline
 90
   17
 70
    0
 43
0
 10
3317.878045296345
 20
1314.816303095938
 42
-0.2362172165162178
 10
3332.561505369532
 20
1319.65046299189
 10
3354.282936398445
 20
1316.40620999489
 42
-0.1251869431918741
 10
3361.348883783012
 20
1312.458039044249
 10
3367.745052074327
 20
1305.841464528636
 42
-0.1903886243688782
 10
3369.635404383259
 20
1301.056958235071
 10
3369.635404383259
 20
1288.084370133167
 42
-0.4142135623730667
 10
3362.635404383259
 20
1281.084370133167
 10
3315.044069058107
 20
1281.084370133167
 10
3315.044069058107
 20
1286.44524346384
 42
0.2840394112998398
 10
3313.938758652818
 20
1288.233966619925
 10
3312.574898125619
 20
1288.916146988739
 42
0.1164709921781386
 10
3311.680208530908
 20
1289.127423832653
 10
3310.154349888803
 20
1289.127423832653
 42
-0.414213562373095
 10
3303.154349888803
 20
1296.127423832653
 42
-0.1609736774954648
 10
3304.96206216013
 20
1300.284638820258
 10
3317.705987381325
 20
1314.634371479281
  0
LWPOLYLINE
  5
A6
100
AcDbEntity
  8
0
  6
ByLayer
 62
    2
370
   -1
100
AcDbPolyline
 90
   17
 70
    0
 43
0
 10
3187.478045296345
 20
1314.816303095938
 42
-0.2362172165162158
 10
3202.161505369532
 20
1319.65046299189
 10
3223.882936398445
 20
1316.40620999489
 42
-0.1251869431918728
 10
3230.948883783013
 20
1312.458039044249
 10
3237.345052074328
 20
1305.841464528636
 42
-0.1903886243688732
 10
3239.235404383259
 20
1301.056958235071
 10
3239.235404383259
 20
1288.084370133167
 42
-0.4142135623730667
 10
3232.235404383259
 20
1281.084370133167
 10
3184.644069058107
 20
1281.084370133167
 10
3184.644069058107
 20
1286.44524346384
 42
0.2840394112998569
 10
3183.538758652818
 20
1288.233966619925
 10
3182.174898125619
 20
1288.916146988739
 42
0.1164709921781378
 10
3181.280208530907
 20
1289.127423832653
 10
3179.754349888804
 20
1289.127423832653
 42
-0.414213562373095
 10
3172.754349888804
 20
1296.127423832653
 42
-0.1609736774954601
 10
3174.56206216013
 20
1300.284638820258
 10
3187.305987381325
 20
1314.634371479281
  0
LWPOLYLINE
  5
A7
100
AcDbEntity
  8
0
  6
ByLayer
 62
    2
370
   -1
100
AcDbPolyline
 90
   17
 70
    0
 43
0
 10
3094.898045296345
 20
1314.816303095938
 42
-0.2362172165162178
 10
3109.581505369533
 20
1319.65046299189
 10
3131.302936398445
 20
1316.40620999489
 42
-0.1251869431918728
 10
3138.368883783013
 20
1312.458039044249
 10
3144.765052074327
 20
1305.841464528636
 42
-0.1903886243688783
 10
3146.65540438326
 20
1301.056958235071
 10
3146.65540438326
 20
1288.084370133167
 42
-0.4142135623730667
 10
3139.65540438326
 20
1281.084370133167
 10
3092.064069058107
 20
1281.084370133167
 10
3092.064069058107
 20
1286.44524346384
 42
0.2840394112998948
 10
3090.958758652818
 20
1288.233966619925
 10
3089.594898125619
 20
1288.916146988739
 42
0.1164709921781378
 10
3088.700208530907
 20
1289.127423832653
 10
3087.174349888804
 20
1289.127423832653
 42
-0.414213562373095
 10
3080.174349888804
 20
1296.127423832653
 42
-0.1609736774954601
 10
3081.98206216013
 20
1300.284638820258
 10
3094.725987381325
 20
1314.634371479281
  0
LWPOLYLINE
  5
A8
100
AcDbEntity
  8
0
  6
ByLayer
 62
    2
370
   -1
100
AcDbPolyline
 90
   17
 70
    0
 43
0
 10
3002.408045296345
 20
1314.816303095938
 42
-0.2362172165162168
 10
3017.091505369533
 20
1319.65046299189
 10
3038.812936398445
 20
1316.40620999489
 42
-0.1251869431918728
 10
3045.878883783013
 20
1312.458039044249
 10
3052.275052074328
 20
1305.841464528636
 42
-0.1903886243688782
 10
3054.16540438326
 20
1301.056958235071
 10
3054.16540438326
 20
1288.084370133167
 42
-0.4142135623730667
 10
3047.16540438326
 20
1281.084370133167
 10
2999.574069058107
 20
1281.084370133167
 10
2999.574069058107
 20
1286.44524346384
 42
0.2840394112998698
 10
2998.468758652819
 20
1288.233966619925
 10
2997.104898125619
 20
1288.916146988739
 42
0.1164709921781447
 10
2996.210208530908
 20
1289.127423832653
 10
2994.684349888804
 20
1289.127423832653
 42
-0.414213562373095
 10
2987.684349888803
 20
1296.127423832653
 42
-0.1609736774954695
 10
2989.49206216013
 20
1300.284638820258
 10
3002.235987381326
 20
1314.634371479281
  0
LWPOLYLINE
  5
A9
100
AcDbEntity
  8
0
  6
ByLayer
 62
    2
370
   -1
100
AcDbPolyline
 90
   17
 70
    0
 43
0
 10
2843.858045296345
 20
1314.816303095938
 42
-0.2362172165162178
 10
2858.541505369533
 20
1319.65046299189
 10
2880.262936398445
 20
1316.40620999489
 42
-0.1251869431918728
 10
2887.328883783013
 20
1312.458039044249
 10
2893.725052074327
 20
1305.841464528636
 42
-0.1903886243688783
 10
2895.61540438326
 20
1301.056958235071
 10
2895.61540438326
 20
1288.084370133167
 42
-0.4142135623730664
 10
2888.615404383259
 20
1281.084370133167
 10
2841.024069058107
 20
1281.084370133167
 10
2841.024069058107
 20
1286.44524346384
 42
0.2840394112998948
 10
2839.918758652818
 20
1288.233966619925
 10
2838.554898125619
 20
1288.916146988739
 42
0.1164709921781447
 10
2837.660208530908
 20
1289.127423832653
 10
2836.134349888803
 20
1289.127423832653
 42
-0.414213562373095
 10
2829.134349888804
 20
1296.127423832653
 42
-0.1609736774954648
 10
2830.94206216013
 20
1300.284638820258
 10
2843.685987381325
 20
1314.634371479281
  0
LWPOLYLINE
  5
AA
100
AcDbEntity
  8
0
  6
ByLayer
 62
    2
370
   -1
100
AcDbPolyline
 90
   17
 70
    0
 43
0
 10
2751.368045296345
 20
1314.816303095938
 42
-0.2362172165162168
 10
2766.051505369533
 20
1319.65046299189
 10
2787.772936398445
 20
1316.40620999489
 42
-0.1251869431918728
 10
2794.838883783013
 20
1312.458039044249
 10
2801.235052074328
 20
1305.841464528636
 42
-0.1903886243688782
 10
2803.12540438326
 20
1301.056958235071
 10
2803.12540438326
 20
1288.084370133167
 42
-0.4142135623730667
 10
2796.12540438326
 20
1281.084370133167
 10
2748.534069058107
 20
1281.084370133167
 10
2748.534069058107
 20
1286.44524346384
 42
0.2840394112998569
 10
2747.428758652818
 20
1288.233966619925
 10
2746.064898125619
 20
1288.916146988739
 42
0.1164709921781447
 10
2745.170208530908
 20
1289.127423832653
 10
2743.644349888804
 20
1289.127423832653
 42
-0.414213562373095
 10
2736.644349888803
 20
1296.127423832653
 42
-0.1609736774954695
 10
2738.45206216013
 20
1300.284638820258
 10
2751.195987381326
 20
1314.634371479281
  0
LWPOLYLINE
  5
AB
100
AcDbEntity
  8
0
  6
ByLayer
 62
    2
370
   -1
100
AcDbPolyline
 90
   17
 70
    0
 43
0
 10
2658.788045296345
 20
1314.816303095938
 42
-0.2362172165162168
 10
2673.471505369533
 20
1319.65046299189
 10
2695.192936398445
 20
1316.40620999489
 42
-0.1251869431918728
 10
2702.258883783013
 20
1312.458039044249
 10
2708.655052074328
 20
1305.841464528636
 42
-0.1903886243688782
 10
2710.54540438326
 20
1301.056958235071
 10
2710.54540438326
 20
1288.084370133167
 42
-0.4142135623730667
 10
2703.54540438326
 20
1281.084370133167
 10
2655.954069058107
 20
1281.084370133167
 10
2655.954069058107
 20
1286.44524346384
 42
0.2840394112998698
 10
2654.848758652819
 20
1288.233966619925
 10
2653.484898125619
 20
1288.916146988739
 42
0.1164709921781447
 10
2652.590208530908
 20
1289.127423832653
 10
2651.064349888804
 20
1289.127423832653
 42
-0.414213562373095
 10
2644.064349888803
 20
1296.127423832653
 42
-0.1609736774954695
 10
2645.87206216013
 20
1300.284638820258
 10
2658.615987381326
 20
1314.634371479281
  0
LWPOLYLINE
  5
AC
100
AcDbEntity
  8
0
  6
ByLayer
 62
    2
370
   -1
100
AcDbPolyline
 90
   17
 70
    0
 43
0
 10
2528.388045296345
 20
1314.816303095938
 42
-0.2362172165162168
 10
2543.071505369533
 20
1319.65046299189
 10
2564.792936398446
 20
1316.40620999489
 42
-0.1251869431918732
 10
2571.858883783013
 20
1312.458039044249
 10
2578.255052074327
 20
1305.841464528636
 42
-0.1903886243688783
 10
2580.14540438326
 20
1301.056958235071
 10
2580.14540438326
 20
1288.084370133167
 42
-0.4142135623730667
 10
2573.14540438326
 20
1281.084370133167
 10
2525.554069058107
 20
1281.084370133167
 10
2525.554069058107
 20
1286.44524346384
 42
0.2840394112998569
 10
2524.448758652818
 20
1288.233966619925
 10
2523.084898125619
 20
1288.916146988739
 42
0.1164709921781447
 10
2522.190208530908
 20
1289.127423832653
 10
2520.664349888804
 20
1289.127423832653
 42
-0.414213562373095
 10
2513.664349888804
 20
1296.127423832653
 42
-0.1609736774954601
 10
2515.47206216013
 20
1300.284638820258
 10
2528.215987381325
 20
1314.634371479281
  0
LWPOLYLINE
  5
AD
100
AcDbEntity
  8
0
  6
ByLayer
 62
    2
370
   -1
100
AcDbPolyline
 90
   17
 70
    0
 43
0
 10
2435.458045296345
 20
1314.816303095938
 42
-0.2362172165162168
 10
2450.141505369533
 20
1319.65046299189
 10
2471.862936398446
 20
1316.40620999489
 42
-0.1251869431918732
 10
2478.928883783013
 20
1312.458039044249
 10
2485.325052074328
 20
1305.841464528636
 42
-0.1903886243688782
 10
2487.21540438326
 20
1301.056958235071
 10
2487.21540438326
 20
1288.084370133167
 42
-0.4142135623730667
 10
2480.21540438326
 20
1281.084370133167
 10
2432.624069058107
 20
1281.084370133167
 10
2432.624069058107
 20
1286.44524346384
 42
0.2840394112998698
 10
2431.518758652819
 20
1288.233966619925
 10
2430.15489812562
 20
1288.916146988739
 42
0.1164709921781378
 10
2429.260208530908
 20
1289.127423832653
 10
2427.734349888804
 20
1289.127423832653
 42
-0.414213562373095
 10
2420.734349888804
 20
1296.127423832653
 42
-0.1609736774954695
 10
2422.54206216013
 20
1300.284638820258
 10
2435.285987381325
 20
1314.634371479281
  0
LWPOLYLINE
  5
AE
100
AcDbEntity
  8
0
  6
ByLayer
 62
    2
370
   -1
100
AcDbPolyline
 90
   17
 70
    0
 43
0
 10
2342.088045296345
 20
1314.816303095938
 42
-0.2362172165162159
 10
2356.771505369533
 20
1319.65046299189
 10
2378.492936398446
 20
1316.40620999489
 42
-0.1251869431918741
 10
2385.558883783013
 20
1312.458039044249
 10
2391.955052074328
 20
1305.841464528636
 42
-0.1903886243688782
 10
2393.84540438326
 20
1301.056958235071
 10
2393.84540438326
 20
1288.084370133167
 42
-0.4142135623730667
 10
2386.84540438326
 20
1281.084370133167
 10
2339.254069058107
 20
1281.084370133167
 10
2339.254069058107
 20
1286.44524346384
 42
0.2840394112998866
 10
2338.148758652819
 20
1288.233966619925
 10
2336.784898125619
 20
1288.916146988739
 42
0.1164709921781447
 10
2335.890208530908
 20
1289.127423832653
 10
2334.364349888804
 20
1289.127423832653
 42
-0.414213562373095
 10
2327.364349888804
 20
1296.127423832653
 42
-0.1609736774954602
 10
2329.172062160131
 20
1300.284638820258
 10
2341.915987381326
 20
1314.634371479281
  0
LWPOLYLINE
  5
AF
100
AcDbEntity
  8
0
  6
ByLayer
 62
    2
370
   -1
100
AcDbPolyline
 90
   17
 70
    0
 43
0
 10
3410.808045296345
 20
1174.166303095937
 42
-0.2362172165162167
 10
3425.491505369532
 20
1179.000462991889
 10
3447.212936398445
 20
1175.75620999489
 42
-0.1251869431918732
 10
3454.278883783012
 20
1171.808039044249
 10
3460.675052074327
 20
1165.191464528636
 42
-0.1903886243688751
 10
3462.565404383259
 20
1160.406958235071
 10
3462.565404383259
 20
1147.434370133167
 42
-0.4142135623730664
 10
3455.565404383259
 20
1140.434370133166
 10
3407.974069058107
 20
1140.434370133166
 10
3407.974069058107
 20
1145.79524346384
 42
0.2840394112999111
 10
3406.868758652819
 20
1147.583966619925
 10
3405.504898125619
 20
1148.266146988738
 42
0.116470992178146
 10
3404.610208530908
 20
1148.477423832653
 10
3403.084349888803
 20
1148.477423832653
 42
-0.414213562373095
 10
3396.084349888803
 20
1155.477423832653
 42
-0.1609736774954663
 10
3397.89206216013
 20
1159.634638820258
 10
3410.635987381325
 20
1173.984371479281
  0
LWPOLYLINE
  5
B0
100
AcDbEntity
  8
0
  6
ByLayer
 62
    2
370
   -1
100
AcDbPolyline
 90
   17
 70
    0
 43
0
 10
3317.878045296345
 20
1174.166303095937
 42
-0.2362172165162178
 10
3332.561505369532
 20
1179.000462991889
 10
3354.282936398445
 20
1175.75620999489
 42
-0.1251869431918741
 10
3361.348883783012
 20
1171.808039044249
 10
3367.745052074327
 20
1165.191464528636
 42
-0.1903886243688751
 10
3369.635404383259
 20
1160.406958235071
 10
3369.635404383259
 20
1147.434370133167
 42
-0.4142135623730664
 10
3362.635404383259
 20
1140.434370133166
 10
3315.044069058107
 20
1140.434370133166
 10
3315.044069058107
 20
1145.79524346384
 42
0.2840394112998811
 10
3313.938758652818
 20
1147.583966619925
 10
3312.574898125619
 20
1148.266146988738
 42
0.1164709921781401
 10
3311.680208530908
 20
1148.477423832653
 10
3310.154349888803
 20
1148.477423832653
 42
-0.414213562373095
 10
3303.154349888803
 20
1155.477423832653
 42
-0.1609736774954615
 10
3304.96206216013
 20
1159.634638820258
 10
3317.705987381325
 20
1173.984371479281
  0
LWPOLYLINE
  5
B1
100
AcDbEntity
  8
0
  6
ByLayer
 62
    2
370
   -1
100
AcDbPolyline
 90
   17
 70
    0
 43
0
 10
3187.478045296345
 20
1174.166303095937
 42
-0.2362172165162158
 10
3202.161505369532
 20
1179.000462991889
 10
3223.882936398445
 20
1175.75620999489
 42
-0.1251869431918728
 10
3230.948883783013
 20
1171.808039044249
 10
3237.345052074328
 20
1165.191464528636
 42
-0.1903886243688705
 10
3239.235404383259
 20
1160.406958235071
 10
3239.235404383259
 20
1147.434370133167
 42
-0.4142135623730664
 10
3232.235404383259
 20
1140.434370133166
 10
3184.644069058107
 20
1140.434370133166
 10
3184.644069058107
 20
1145.79524346384
 42
0.284039411299898
 10
3183.538758652818
 20
1147.583966619925
 10
3182.174898125619
 20
1148.266146988738
 42
0.1164709921781393
 10
3181.280208530907
 20
1148.477423832653
 10
3179.754349888804
 20
1148.477423832653
 42
-0.414213562373095
 10
3172.754349888804
 20
1155.477423832653
 42
-0.1609736774954568
 10
3174.56206216013
 20
1159.634638820258
 10
3187.305987381325
 20
1173.984371479281
  0
LWPOLYLINE
  5
B2
100
AcDbEntity
  8
0
  6
ByLayer
 62
    2
370
   -1
100
AcDbPolyline
 90
   17
 70
    0
 43
0
 10
3094.898045296345
 20
1174.166303095937
 42
-0.2362172165162178
 10
3109.581505369533
 20
1179.000462991889
 10
3131.302936398445
 20
1175.75620999489
 42
-0.1251869431918728
 10
3138.368883783013
 20
1171.808039044249
 10
3144.765052074327
 20
1165.191464528636
 42
-0.1903886243688752
 10
3146.65540438326
 20
1160.406958235071
 10
3146.65540438326
 20
1147.434370133167
 42
-0.4142135623730664
 10
3139.65540438326
 20
1140.434370133166
 10
3092.064069058107
 20
1140.434370133166
 10
3092.064069058108
 20
1145.79524346384
 42
0.284039411299936
 10
3090.958758652818
 20
1147.583966619925
 10
3089.594898125619
 20
1148.266146988738
 42
0.1164709921781393
 10
3088.700208530907
 20
1148.477423832653
 10
3087.174349888804
 20
1148.477423832653
 42
-0.414213562373095
 10
3080.174349888804
 20
1155.477423832653
 42
-0.1609736774954568
 10
3081.98206216013
 20
1159.634638820258
 10
3094.725987381325
 20
1173.984371479281
  0
LWPOLYLINE
  5
B3
100
AcDbEntity
  8
0
  6
ByLayer
 62
    2
370
   -1
100
AcDbPolyline
 90
   17
 70
    0
 43
0
 10
3002.408045296345
 20
1174.166303095937
 42
-0.2362172165162168
 10
3017.091505369533
 20
1179.000462991889
 10
3038.812936398445
 20
1175.75620999489
 42
-0.1251869431918728
 10
3045.878883783013
 20
1171.808039044249
 10
3052.275052074328
 20
1165.191464528636
 42
-0.1903886243688751
 10
3054.16540438326
 20
1160.406958235071
 10
3054.16540438326
 20
1147.434370133167
 42
-0.4142135623730664
 10
3047.16540438326
 20
1140.434370133166
 10
2999.574069058107
 20
1140.434370133166
 10
2999.574069058107
 20
1145.79524346384
 42
0.2840394112999111
 10
2998.468758652819
 20
1147.583966619925
 10
2997.104898125619
 20
1148.266146988738
 42
0.116470992178146
 10
2996.210208530908
 20
1148.477423832653
 10
2994.684349888804
 20
1148.477423832653
 42
-0.414213562373095
 10
2987.684349888804
 20
1155.477423832653
 42
-0.1609736774954661
 10
2989.49206216013
 20
1159.634638820258
 10
3002.235987381326
 20
1173.984371479281
  0
LWPOLYLINE
  5
B4
100
AcDbEntity
  8
0
  6
ByLayer
 62
    2
370
   -1
100
AcDbPolyline
 90
   17
 70
    0
 43
0
 10
2843.858045296345
 20
1174.166303095937
 42
-0.2362172165162178
 10
2858.541505369533
 20
1179.000462991889
 10
2880.262936398445
 20
1175.75620999489
 42
-0.1251869431918728
 10
2887.328883783013
 20
1171.808039044249
 10
2893.725052074327
 20
1165.191464528636
 42
-0.1903886243688752
 10
2895.61540438326
 20
1160.406958235071
 10
2895.61540438326
 20
1147.434370133167
 42
-0.4142135623730667
 10
2888.615404383259
 20
1140.434370133166
 10
2841.024069058107
 20
1140.434370133166
 10
2841.024069058108
 20
1145.79524346384
 42
0.284039411299936
 10
2839.918758652818
 20
1147.583966619925
 10
2838.554898125619
 20
1148.266146988738
 42
0.1164709921781461
 10
2837.660208530908
 20
1148.477423832653
 10
2836.134349888803
 20
1148.477423832653
 42
-0.414213562373095
 10
2829.134349888804
 20
1155.477423832653
 42
-0.1609736774954615
 10
2830.94206216013
 20
1159.634638820258
 10
2843.685987381325
 20
1173.984371479281
  0
LWPOLYLINE
  5
B5
100
AcDbEntity
  8
0
  6
ByLayer
 62
    2
370
   -1
100
AcDbPolyline
 90
   17
 70
    0
 43
0
 10
2751.368045296345
 20
1174.166303095937
 42
-0.2362172165162168
 10
2766.051505369533
 20
1179.000462991889
 10
2787.772936398445
 20
1175.75620999489
 42
-0.1251869431918728
 10
2794.838883783013
 20
1171.808039044249
 10
2801.235052074328
 20
1165.191464528636
 42
-0.1903886243688751
 10
2803.12540438326
 20
1160.406958235071
 10
2803.12540438326
 20
1147.434370133167
 42
-0.4142135623730664
 10
2796.12540438326
 20
1140.434370133166
 10
2748.534069058107
 20
1140.434370133166
 10
2748.534069058107
 20
1145.79524346384
 42
0.284039411299898
 10
2747.428758652818
 20
1147.583966619925
 10
2746.064898125619
 20
1148.266146988738
 42
0.116470992178146
 10
2745.170208530908
 20
1148.477423832653
 10
2743.644349888804
 20
1148.477423832653
 42
-0.414213562373095
 10
2736.644349888804
 20
1155.477423832653
 42
-0.1609736774954661
 10
2738.45206216013
 20
1159.634638820258
 10
2751.195987381326
 20
1173.984371479281
  0
LWPOLYLINE
  5
B6
100
AcDbEntity
  8
0
  6
ByLayer
 62
    2
370
   -1
100
AcDbPolyline
 90
   17
 70
    0
 43
0
 10
2658.788045296345
 20
1174.166303095937
 42
-0.2362172165162168
 10
2673.471505369533
 20
1179.000462991889
 10
2695.192936398445
 20
1175.75620999489
 42
-0.1251869431918728
 10
2702.258883783013
 20
1171.808039044249
 10
2708.655052074328
 20
1165.191464528636
 42
-0.1903886243688751
 10
2710.54540438326
 20
1160.406958235071
 10
2710.54540438326
 20
1147.434370133167
 42
-0.4142135623730664
 10
2703.54540438326
 20
1140.434370133166
 10
2655.954069058107
 20
1140.434370133166
 10
2655.954069058107
 20
1145.79524346384
 42
0.2840394112999111
 10
2654.848758652819
 20
1147.583966619925
 10
2653.484898125619
 20
1148.266146988738
 42
0.116470992178146
 10
2652.590208530908
 20
1148.477423832653
 10
2651.064349888804
 20
1148.477423832653
 42
-0.414213562373095
 10
2644.064349888804
 20
1155.477423832653
 42
-0.1609736774954661
 10
2645.87206216013
 20
1159.634638820258
 10
2658.615987381326
 20
1173.984371479281
  0
LWPOLYLINE
  5
B7
100
AcDbEntity
  8
0
  6
ByLayer
 62
    2
370
   -1
100
AcDbPolyline
 90
   17
 70
    0
 43
0
 10
2528.388045296345
 20
1174.166303095937
 42
-0.2362172165162168
 10
2543.071505369533
 20
1179.000462991889
 10
2564.792936398446
 20
1175.75620999489
 42
-0.1251869431918732
 10
2571.858883783013
 20
1171.808039044249
 10
2578.255052074327
 20
1165.191464528636
 42
-0.1903886243688752
 10
2580.14540438326
 20
1160.406958235071
 10
2580.14540438326
 20
1147.434370133167
 42
-0.4142135623730664
 10
2573.14540438326
 20
1140.434370133166
 10
2525.554069058107
 20
1140.434370133166
 10
2525.554069058107
 20
1145.79524346384
 42
0.284039411299898
 10
2524.448758652818
 20
1147.583966619925
 10
2523.084898125619
 20
1148.266146988738
 42
0.116470992178146
 10
2522.190208530908
 20
1148.477423832653
 10
2520.664349888804
 20
1148.477423832653
 42
-0.414213562373095
 10
2513.664349888804
 20
1155.477423832653
 42
-0.1609736774954568
 10
2515.47206216013
 20
1159.634638820258
 10
2528.215987381325
 20
1173.984371479281
  0
LWPOLYLINE
  5
B8
100
AcDbEntity
  8
0
  6
ByLayer
 62
    2
370
   -1
100
AcDbPolyline
 90
   17
 70
    0
 43
0
 10
2435.458045296345
 20
1174.166303095937
 42
-0.2362172165162168
 10
2450.141505369533
 20
1179.000462991889
 10
2471.862936398446
 20
1175.75620999489
 42
-0.1251869431918732
 10
2478.928883783013
 20
1171.808039044249
 10
2485.325052074328
 20
1165.191464528636
 42
-0.1903886243688751
 10
2487.21540438326
 20
1160.406958235071
 10
2487.21540438326
 20
1147.434370133167
 42
-0.4142135623730664
 10
2480.21540438326
 20
1140.434370133166
 10
2432.624069058107
 20
1140.434370133166
 10
2432.624069058107
 20
1145.79524346384
 42
0.2840394112999111
 10
2431.518758652819
 20
1147.583966619925
 10
2430.15489812562
 20
1148.266146988738
 42
0.1164709921781393
 10
2429.260208530908
 20
1148.477423832653
 10
2427.734349888804
 20
1148.477423832653
 42
-0.414213562373095
 10
2420.734349888804
 20
1155.477423832653
 42
-0.1609736774954661
 10
2422.54206216013
 20
1159.634638820258
 10
2435.285987381325
 20
1173.984371479281
  0
LWPOLYLINE
  5
B9
100
AcDbEntity
  8
0
  6
ByLayer
 62
    2
370
   -1
100
AcDbPolyline
 90
   17
 70
    0
 43
0
 10
2342.088045296345
 20
1174.166303095937
 42
-0.2362172165162159
 10
2356.771505369533
 20
1179.000462991889
 10
2378.492936398446
 20
1175.75620999489
 42
-0.1251869431918741
 10
2385.558883783013
 20
1171.808039044249
 10
2391.955052074328
 20
1165.191464528636
 42
-0.1903886243688751
 10
2393.84540438326
 20
1160.406958235071
 10
2393.84540438326
 20
1147.434370133167
 42
-0.4142135623730664
 10
2386.84540438326
 20
1140.434370133166
 10
2339.254069058107
 20
1140.434370133166
 10
2339.254069058107
 20
1145.79524346384
 42
0.2840394112999279
 10
2338.148758652819
 20
1147.583966619925
 10
2336.784898125619
 20
1148.266146988738
 42
0.116470992178146
 10
2335.890208530908
 20
1148.477423832653
 10
2334.364349888804
 20
1148.477423832653
 42
-0.414213562373095
 10
2327.364349888805
 20
1155.477423832653
 42
-0.1609736774954569
 10
2329.172062160131
 20
1159.634638820258
 10
2341.915987381326
 20
1173.984371479281
  0
LWPOLYLINE
  5
BA
100
AcDbEntity
  8
0
  6
ByLayer
 62
    2
370
   -1
100
AcDbPolyline
 90
   17
 70
    0
 43
0
 10
3504.178045296344
 20
951.0663030959375
 42
-0.2362172165162158
 10
3518.861505369532
 20
955.9004629918898
 10
3540.582936398446
 20
952.6562099948902
 42
-0.1251869431918716
 10
3547.648883783013
 20
948.7080390442494
 10
3554.045052074327
 20
942.0914645286366
 42
-0.1903886243688709
 10
3555.935404383259
 20
937.3069582350716
 10
3555.935404383259
 20
924.3343701331673
 42
-0.414213562373076
 10
3548.935404383259
 20
917.3343701331669
 10
3501.344069058106
 20
917.3343701331669
 10
3501.344069058106
 20
922.6952434638398
 42
0.2840394112998919
 10
3500.238758652818
 20
924.4839666199251
 10
3498.874898125619
 20
925.1661469887388
 42
0.1164709921781457
 10
3497.980208530907
 20
925.3774238326537
 10
3496.454349888804
 20
925.3774238326537
 42
-0.414213562373095
 10
3489.454349888802
 20
932.3774238326537
 42
-0.1609736774954698
 10
3491.26206216013
 20
936.5346388202586
 10
3504.005987381325
 20
950.8843714792815
  0
LWPOLYLINE
  5
BB
100
AcDbEntity
  8
0
  6
ByLayer
 62
    2
370
   -1
100
AcDbPolyline
 90
   17
 70
    0
 43
0
 10
3410.808045296345
 20
951.0663030959375
 42
-0.2362172165162159
 10
3425.491505369532
 20
955.9004629918898
 10
3447.212936398445
 20
952.6562099948902
 42
-0.1251869431918716
 10
3454.278883783012
 20
948.7080390442494
 10
3460.675052074327
 20
942.0914645286366
 42
-0.1903886243688709
 10
3462.565404383259
 20
937.3069582350716
 10
3462.565404383259
 20
924.3343701331673
 42
-0.414213562373076
 10
3455.565404383259
 20
917.3343701331669
 10
3407.974069058107
 20
917.3343701331669
 10
3407.974069058107
 20
922.6952434638398
 42
0.2840394112998919
 10
3406.868758652819
 20
924.4839666199251
 10
3405.504898125619
 20
925.1661469887388
 42
0.116470992178146
 10
3404.610208530908
 20
925.3774238326537
 10
3403.084349888803
 20
925.3774238326537
 42
-0.414213562373095
 10
3396.084349888803
 20
932.3774238326537
 42
-0.1609736774954698
 10
3397.89206216013
 20
936.5346388202586
 10
3410.635987381325
 20
950.8843714792815
  0
LWPOLYLINE
  5
BC
100
AcDbEntity
  8
0
  6
ByLayer
 62
    2
370
   -1
100
AcDbPolyline
 90
   17
 70
    0
 43
0
 10
3317.878045296345
 20
951.0663030959377
 42
-0.2362172165162167
 10
3332.561505369532
 20
955.9004629918898
 10
3354.282936398445
 20
952.6562099948903
 42
-0.1251869431918725
 10
3361.348883783012
 20
948.7080390442495
 10
3367.745052074327
 20
942.0914645286366
 42
-0.1903886243688709
 10
3369.635404383259
 20
937.3069582350716
 10
3369.635404383259
 20
924.3343701331673
 42
-0.414213562373076
 10
3362.635404383259
 20
917.3343701331669
 10
3315.044069058107
 20
917.3343701331669
 10
3315.044069058107
 20
922.6952434638398
 42
0.2840394112998705
 10
3313.938758652818
 20
924.4839666199251
 10
3312.574898125619
 20
925.1661469887388
 42
0.1164709921781465
 10
3311.680208530908
 20
925.3774238326537
 10
3310.154349888803
 20
925.3774238326537
 42
-0.414213562373095
 10
3303.154349888803
 20
932.3774238326537
 42
-0.1609736774954651
 10
3304.96206216013
 20
936.5346388202585
 10
3317.705987381325
 20
950.8843714792815
  0
LWPOLYLINE
  5
BD
100
AcDbEntity
  8
0
  6
ByLayer
 62
    2
370
   -1
100
AcDbPolyline
 90
   17
 70
    0
 43
0
 10
3187.478045296345
 20
951.0663030959374
 42
-0.236217216516215
 10
3202.161505369532
 20
955.9004629918899
 10
3223.882936398445
 20
952.6562099948903
 42
-0.125186943191872
 10
3230.948883783013
 20
948.7080390442495
 10
3237.345052074328
 20
942.0914645286365
 42
-0.1903886243688659
 10
3239.235404383258
 20
937.3069582350716
 10
3239.235404383259
 20
924.3343701331673
 42
-0.414213562373076
 10
3232.235404383259
 20
917.3343701331669
 10
3184.644069058107
 20
917.3343701331669
 10
3184.644069058107
 20
922.6952434638398
 42
0.284039411299896
 10
3183.538758652818
 20
924.4839666199252
 10
3182.174898125619
 20
925.1661469887388
 42
0.1164709921781457
 10
3181.280208530907
 20
925.3774238326537
 10
3179.754349888804
 20
925.3774238326537
 42
-0.414213562373095
 10
3172.754349888804
 20
932.3774238326537
 42
-0.1609736774954603
 10
3174.56206216013
 20
936.5346388202584
 10
3187.305987381325
 20
950.8843714792815
  0
LWPOLYLINE
  5
BE
100
AcDbEntity
  8
0
  6
ByLayer
 62
    2
370
   -1
100
AcDbPolyline
 90
   17
 70
    0
 43
0
 10
3094.898045296345
 20
951.0663030959377
 42
-0.2362172165162168
 10
3109.581505369533
 20
955.9004629918898
 10
3131.302936398445
 20
952.6562099948903
 42
-0.125186943191872
 10
3138.368883783013
 20
948.7080390442495
 10
3144.765052074327
 20
942.0914645286366
 42
-0.1903886243688711
 10
3146.65540438326
 20
937.3069582350716
 10
3146.65540438326
 20
924.3343701331673
 42
-0.414213562373076
 10
3139.65540438326
 20
917.3343701331669
 10
3092.064069058107
 20
917.3343701331669
 10
3092.064069058108
 20
922.6952434638398
 42
0.2840394112999255
 10
3090.958758652818
 20
924.4839666199252
 10
3089.594898125619
 20
925.1661469887388
 42
0.1164709921781457
 10
3088.700208530907
 20
925.3774238326537
 10
3087.174349888804
 20
925.3774238326537
 42
-0.414213562373095
 10
3080.174349888804
 20
932.3774238326537
 42
-0.1609736774954603
 10
3081.98206216013
 20
936.5346388202584
 10
3094.725987381325
 20
950.8843714792815
  0
LWPOLYLINE
  5
BF
100
AcDbEntity
  8
0
  6
ByLayer
 62
    2
370
   -1
100
AcDbPolyline
 90
   17
 70
    0
 43
0
 10
3002.408045296345
 20
951.0663030959375
 42
-0.2362172165162158
 10
3017.091505369533
 20
955.9004629918898
 10
3038.812936398445
 20
952.6562099948903
 42
-0.125186943191872
 10
3045.878883783013
 20
948.7080390442495
 10
3052.275052074328
 20
942.0914645286366
 42
-0.1903886243688709
 10
3054.16540438326
 20
937.3069582350716
 10
3054.16540438326
 20
924.3343701331673
 42
-0.414213562373076
 10
3047.16540438326
 20
917.3343701331669
 10
2999.574069058107
 20
917.3343701331669
 10
2999.574069058107
 20
922.6952434638398
 42
0.2840394112998919
 10
2998.468758652819
 20
924.4839666199251
 10
2997.104898125619
 20
925.1661469887388
 42
0.116470992178146
 10
2996.210208530908
 20
925.3774238326537
 10
2994.684349888804
 20
925.3774238326537
 42
-0.414213562373095
 10
2987.684349888803
 20
932.3774238326537
 42
-0.1609736774954696
 10
2989.49206216013
 20
936.5346388202586
 10
3002.235987381326
 20
950.8843714792815
  0
LWPOLYLINE
  5
C0
100
AcDbEntity
  8
0
  6
ByLayer
 62
    2
370
   -1
100
AcDbPolyline
 90
   17
 70
    0
 43
0
 10
2843.858045296345
 20
951.0663030959377
 42
-0.2362172165162168
 10
2858.541505369533
 20
955.9004629918898
 10
2880.262936398445
 20
952.6562099948903
 42
-0.125186943191872
 10
2887.328883783013
 20
948.7080390442495
 10
2893.725052074327
 20
942.0914645286366
 42
-0.1903886243688711
 10
2895.61540438326
 20
937.3069582350716
 10
2895.61540438326
 20
924.3343701331673
 42
-0.414213562373076
 10
2888.615404383259
 20
917.3343701331669
 10
2841.024069058107
 20
917.3343701331669
 10
2841.024069058108
 20
922.6952434638398
 42
0.2840394112999255
 10
2839.918758652818
 20
924.4839666199252
 10
2838.554898125619
 20
925.1661469887389
 42
0.1164709921781526
 10
2837.660208530908
 20
925.3774238326537
 10
2836.134349888803
 20
925.3774238326537
 42
-0.414213562373095
 10
2829.134349888804
 20
932.3774238326537
 42
-0.1609736774954649
 10
2830.94206216013
 20
936.5346388202585
 10
2843.685987381325
 20
950.8843714792815
  0
LWPOLYLINE
  5
C1
100
AcDbEntity
  8
0
  6
ByLayer
 62
    2
370
   -1
100
AcDbPolyline
 90
   17
 70
    0
 43
0
 10
2751.368045296345
 20
951.0663030959375
 42
-0.2362172165162158
 10
2766.051505369533
 20
955.9004629918898
 10
2787.772936398445
 20
952.6562099948903
 42
-0.125186943191872
 10
2794.838883783013
 20
948.7080390442495
 10
2801.235052074328
 20
942.0914645286366
 42
-0.1903886243688709
 10
2803.12540438326
 20
937.3069582350716
 10
2803.12540438326
 20
924.3343701331673
 42
-0.414213562373076
 10
2796.12540438326
 20
917.3343701331669
 10
2748.534069058107
 20
917.3343701331669
 10
2748.534069058107
 20
922.6952434638398
 42
0.284039411299896
 10
2747.428758652818
 20
924.4839666199252
 10
2746.064898125619
 20
925.1661469887388
 42
0.116470992178146
 10
2745.170208530908
 20
925.3774238326537
 10
2743.644349888804
 20
925.3774238326537
 42
-0.414213562373095
 10
2736.644349888803
 20
932.3774238326537
 42
-0.1609736774954696
 10
2738.45206216013
 20
936.5346388202586
 10
2751.195987381326
 20
950.8843714792815
  0
LWPOLYLINE
  5
C2
100
AcDbEntity
  8
0
  6
ByLayer
 62
    2
370
   -1
100
AcDbPolyline
 90
   17
 70
    0
 43
0
 10
2658.788045296345
 20
951.0663030959375
 42
-0.2362172165162158
 10
2673.471505369533
 20
955.9004629918898
 10
2695.192936398445
 20
952.6562099948903
 42
-0.125186943191872
 10
2702.258883783013
 20
948.7080390442495
 10
2708.655052074328
 20
942.0914645286366
 42
-0.1903886243688709
 10
2710.54540438326
 20
937.3069582350716
 10
2710.54540438326
 20
924.3343701331673
 42
-0.414213562373076
 10
2703.54540438326
 20
917.3343701331669
 10
2655.954069058107
 20
917.3343701331669
 10
2655.954069058107
 20
922.6952434638398
 42
0.2840394112998919
 10
2654.848758652819
 20
924.4839666199251
 10
2653.484898125619
 20
925.1661469887388
 42
0.116470992178146
 10
2652.590208530908
 20
925.3774238326537
 10
2651.064349888804
 20
925.3774238326537
 42
-0.414213562373095
 10
2644.064349888803
 20
932.3774238326537
 42
-0.1609736774954696
 10
2645.87206216013
 20
936.5346388202586
 10
2658.615987381326
 20
950.8843714792815
  0
LWPOLYLINE
  5
C3
100
AcDbEntity
  8
0
  6
ByLayer
 62
    2
370
   -1
100
AcDbPolyline
 90
   17
 70
    0
 43
0
 10
2528.388045296345
 20
951.0663030959375
 42
-0.2362172165162158
 10
2543.071505369533
 20
955.9004629918898
 10
2564.792936398446
 20
952.6562099948902
 42
-0.1251869431918716
 10
2571.858883783013
 20
948.7080390442494
 10
2578.255052074327
 20
942.0914645286366
 42
-0.1903886243688711
 10
2580.14540438326
 20
937.3069582350716
 10
2580.14540438326
 20
924.3343701331673
 42
-0.414213562373076
 10
2573.14540438326
 20
917.3343701331669
 10
2525.554069058107
 20
917.3343701331669
 10
2525.554069058107
 20
922.6952434638398
 42
0.284039411299896
 10
2524.448758652818
 20
924.4839666199252
 10
2523.084898125619
 20
925.1661469887388
 42
0.116470992178146
 10
2522.190208530908
 20
925.3774238326537
 10
2520.664349888804
 20
925.3774238326537
 42
-0.414213562373095
 10
2513.664349888804
 20
932.3774238326537
 42
-0.1609736774954603
 10
2515.47206216013
 20
936.5346388202584
 10
2528.215987381325
 20
950.8843714792815
  0
LWPOLYLINE
  5
C4
100
AcDbEntity
  8
0
  6
ByLayer
 62
    2
370
   -1
100
AcDbPolyline
 90
   17
 70
    0
 43
0
 10
2435.458045296345
 20
951.0663030959375
 42
-0.2362172165162158
 10
2450.141505369533
 20
955.9004629918898
 10
2471.862936398446
 20
952.6562099948902
 42
-0.1251869431918716
 10
2478.928883783013
 20
948.7080390442494
 10
2485.325052074328
 20
942.0914645286366
 42
-0.1903886243688709
 10
2487.21540438326
 20
937.3069582350716
 10
2487.21540438326
 20
924.3343701331673
 42
-0.414213562373076
 10
2480.21540438326
 20
917.3343701331669
 10
2432.624069058107
 20
917.3343701331669
 10
2432.624069058107
 20
922.6952434638398
 42
0.2840394112998919
 10
2431.518758652819
 20
924.4839666199251
 10
2430.15489812562
 20
925.1661469887388
 42
0.1164709921781457
 10
2429.260208530908
 20
925.3774238326537
 10
2427.734349888804
 20
925.3774238326537
 42
-0.414213562373095
 10
2420.734349888804
 20
932.3774238326537
 42
-0.1609736774954696
 10
2422.54206216013
 20
936.5346388202586
 10
2435.285987381325
 20
950.8843714792815
  0
LWPOLYLINE
  5
C5
100
AcDbEntity
  8
0
  6
ByLayer
 62
    2
370
   -1
100
AcDbPolyline
 90
   17
 70
    0
 43
0
 10
2342.088045296345
 20
951.0663030959374
 42
-0.2362172165162148
 10
2356.771505369533
 20
955.9004629918899
 10
2378.492936398446
 20
952.6562099948903
 42
-0.1251869431918725
 10
2385.558883783013
 20
948.7080390442495
 10
2391.955052074328
 20
942.0914645286366
 42
-0.1903886243688709
 10
2393.84540438326
 20
937.3069582350716
 10
2393.84540438326
 20
924.3343701331673
 42
-0.414213562373076
 10
2386.84540438326
 20
917.3343701331669
 10
2339.254069058107
 20
917.3343701331669
 10
2339.254069058107
 20
922.6952434638398
 42
0.284039411299926
 10
2338.148758652819
 20
924.4839666199254
 10
2336.784898125619
 20
925.1661469887388
 42
0.116470992178146
 10
2335.890208530908
 20
925.3774238326537
 10
2334.364349888804
 20
925.3774238326537
 42
-0.414213562373095
 10
2327.364349888804
 20
932.3774238326537
 42
-0.1609736774954606
 10
2329.172062160131
 20
936.5346388202584
 10
2341.915987381326
 20
950.8843714792815
  0
LWPOLYLINE
  5
C6
100
AcDbEntity
  8
0
  6
ByLayer
 62
    2
370
   -1
100
AcDbPolyline
 90
   17
 70
    0
 43
0
 10
3504.178045296344
 20
810.4163030959373
 42
-0.2362172165162158
 10
3518.861505369532
 20
815.2504629918895
 10
3540.582936398446
 20
812.0062099948904
 42
-0.1251869431918716
 10
3547.648883783013
 20
808.0580390442493
 10
3554.045052074327
 20
801.4414645286365
 42
-0.1903886243688741
 10
3555.935404383259
 20
796.6569582350714
 10
3555.935404383259
 20
783.6843701331672
 42
-0.414213562373076
 10
3548.935404383259
 20
776.6843701331668
 10
3501.344069058106
 20
776.6843701331668
 10
3501.344069058106
 20
782.0452434638398
 42
0.2840394112998698
 10
3500.238758652818
 20
783.8339666199248
 10
3498.874898125619
 20
784.5161469887386
 42
0.1164709921781457
 10
3497.980208530907
 20
784.7274238326535
 10
3496.454349888804
 20
784.7274238326536
 42
-0.414213562373095
 10
3489.454349888802
 20
791.7274238326536
 42
-0.1609736774954668
 10
3491.26206216013
 20
795.8846388202583
 10
3504.005987381325
 20
810.2343714792814
  0
LWPOLYLINE
  5
C7
100
AcDbEntity
  8
0
  6
ByLayer
 62
    2
370
   -1
100
AcDbPolyline
 90
   17
 70
    0
 43
0
 10
3504.178045296344
 20
669.7663030959372
 42
-0.2362172165162158
 10
3518.861505369532
 20
674.6004629918895
 10
3540.582936398446
 20
671.3562099948902
 42
-0.1251869431918716
 10
3547.648883783013
 20
667.4080390442493
 10
3554.045052074327
 20
660.7914645286362
 42
-0.1903886243688698
 10
3555.935404383259
 20
656.0069582350714
 10
3555.935404383259
 20
643.034370133167
 42
-0.414213562373076
 10
3548.935404383259
 20
636.0343701331666
 10
3501.344069058106
 20
636.0343701331666
 10
3501.344069058106
 20
641.3952434638397
 42
0.2840394112998698
 10
3500.238758652818
 20
643.1839666199247
 10
3498.874898125619
 20
643.8661469887385
 42
0.1164709921781457
 10
3497.980208530907
 20
644.0774238326534
 10
3496.454349888804
 20
644.0774238326535
 42
-0.414213562373095
 10
3489.454349888802
 20
651.0774238326535
 42
-0.1609736774954698
 10
3491.26206216013
 20
655.2346388202584
 10
3504.005987381325
 20
669.5843714792813
  0
LWPOLYLINE
  5
C8
100
AcDbEntity
  8
0
  6
ByLayer
 62
    2
370
   -1
100
AcDbPolyline
 90
   17
 70
    0
 43
0
 10
3410.808045296345
 20
810.4163030959373
 42
-0.2362172165162159
 10
3425.491505369532
 20
815.2504629918895
 10
3447.212936398445
 20
812.0062099948904
 42
-0.1251869431918716
 10
3454.278883783012
 20
808.0580390442493
 10
3460.675052074327
 20
801.4414645286365
 42
-0.1903886243688741
 10
3462.565404383259
 20
796.6569582350714
 10
3462.565404383259
 20
783.6843701331672
 42
-0.414213562373076
 10
3455.565404383259
 20
776.6843701331668
 10
3407.974069058107
 20
776.6843701331668
 10
3407.974069058107
 20
782.0452434638398
 42
0.2840394112998698
 10
3406.868758652819
 20
783.8339666199248
 10
3405.504898125619
 20
784.5161469887386
 42
0.116470992178146
 10
3404.610208530908
 20
784.7274238326535
 10
3403.084349888803
 20
784.7274238326536
 42
-0.414213562373095
 10
3396.084349888803
 20
791.7274238326536
 42
-0.1609736774954668
 10
3397.89206216013
 20
795.8846388202583
 10
3410.635987381325
 20
810.2343714792814
  0
LWPOLYLINE
  5
C9
100
AcDbEntity
  8
0
  6
ByLayer
 62
    2
370
   -1
100
AcDbPolyline
 90
   17
 70
    0
 43
0
 10
3317.878045296345
 20
810.4163030959375
 42
-0.2362172165162167
 10
3332.561505369532
 20
815.2504629918895
 10
3354.282936398445
 20
812.0062099948905
 42
-0.1251869431918725
 10
3361.348883783012
 20
808.0580390442494
 10
3367.745052074327
 20
801.4414645286365
 42
-0.1903886243688741
 10
3369.635404383259
 20
796.6569582350714
 10
3369.635404383259
 20
783.6843701331672
 42
-0.414213562373076
 10
3362.635404383259
 20
776.6843701331668
 10
3315.044069058107
 20
776.6843701331668
 10
3315.044069058107
 20
782.0452434638398
 42
0.2840394112998483
 10
3313.938758652818
 20
783.8339666199248
 10
3312.574898125619
 20
784.5161469887386
 42
0.1164709921781465
 10
3311.680208530908
 20
784.7274238326535
 10
3310.154349888803
 20
784.7274238326536
 42
-0.414213562373095
 10
3303.154349888803
 20
791.7274238326536
 42
-0.1609736774954622
 10
3304.96206216013
 20
795.8846388202581
 10
3317.705987381325
 20
810.2343714792814
  0
LWPOLYLINE
  5
CA
100
AcDbEntity
  8
0
  6
ByLayer
 62
    2
370
   -1
100
AcDbPolyline
 90
   17
 70
    0
 43
0
 10
3187.478045296345
 20
810.4163030959372
 42
-0.236217216516215
 10
3202.161505369532
 20
815.2504629918897
 10
3223.882936398445
 20
812.0062099948905
 42
-0.125186943191872
 10
3230.948883783013
 20
808.0580390442494
 10
3237.345052074328
 20
801.4414645286364
 42
-0.1903886243688691
 10
3239.235404383259
 20
796.6569582350714
 10
3239.235404383259
 20
783.6843701331672
 42
-0.414213562373076
 10
3232.235404383259
 20
776.6843701331668
 10
3184.644069058107
 20
776.6843701331668
 10
3184.644069058107
 20
782.0452434638398
 42
0.2840394112998738
 10
3183.538758652818
 20
783.8339666199249
 10
3182.174898125619
 20
784.5161469887386
 42
0.1164709921781457
 10
3181.280208530907
 20
784.7274238326535
 10
3179.754349888804
 20
784.7274238326536
 42
-0.414213562373095
 10
3172.754349888804
 20
791.7274238326536
 42
-0.1609736774954574
 10
3174.56206216013
 20
795.884638820258
 10
3187.305987381325
 20
810.2343714792814
  0
LWPOLYLINE
  5
CB
100
AcDbEntity
  8
0
  6
ByLayer
 62
    2
370
   -1
100
AcDbPolyline
 90
   17
 70
    0
 43
0
 10
3094.898045296345
 20
810.4163030959375
 42
-0.2362172165162168
 10
3109.581505369533
 20
815.2504629918895
 10
3131.302936398445
 20
812.0062099948905
 42
-0.125186943191872
 10
3138.368883783013
 20
808.0580390442494
 10
3144.765052074327
 20
801.4414645286365
 42
-0.1903886243688741
 10
3146.65540438326
 20
796.6569582350714
 10
3146.65540438326
 20
783.6843701331672
 42
-0.414213562373076
 10
3139.65540438326
 20
776.6843701331668
 10
3092.064069058107
 20
776.6843701331668
 10
3092.064069058107
 20
782.0452434638398
 42
0.2840394112999032
 10
3090.958758652818
 20
783.833966619925
 10
3089.594898125619
 20
784.5161469887386
 42
0.1164709921781457
 10
3088.700208530907
 20
784.7274238326535
 10
3087.174349888804
 20
784.7274238326536
 42
-0.414213562373095
 10
3080.174349888804
 20
791.7274238326536
 42
-0.1609736774954574
 10
3081.98206216013
 20
795.884638820258
 10
3094.725987381325
 20
810.2343714792814
  0
LWPOLYLINE
  5
CC
100
AcDbEntity
  8
0
  6
ByLayer
 62
    2
370
   -1
100
AcDbPolyline
 90
   17
 70
    0
 43
0
 10
3002.408045296345
 20
810.4163030959373
 42
-0.2362172165162158
 10
3017.091505369533
 20
815.2504629918895
 10
3038.812936398445
 20
812.0062099948905
 42
-0.125186943191872
 10
3045.878883783013
 20
808.0580390442494
 10
3052.275052074328
 20
801.4414645286365
 42
-0.1903886243688741
 10
3054.16540438326
 20
796.6569582350714
 10
3054.16540438326
 20
783.6843701331672
 42
-0.414213562373076
 10
3047.16540438326
 20
776.6843701331668
 10
2999.574069058107
 20
776.6843701331668
 10
2999.574069058107
 20
782.0452434638398
 42
0.2840394112998698
 10
2998.468758652819
 20
783.8339666199248
 10
2997.104898125619
 20
784.5161469887386
 42
0.116470992178146
 10
2996.210208530908
 20
784.7274238326535
 10
2994.684349888804
 20
784.7274238326536
 42
-0.414213562373095
 10
2987.684349888803
 20
791.7274238326536
 42
-0.1609736774954666
 10
2989.49206216013
 20
795.8846388202583
 10
3002.235987381326
 20
810.2343714792814
  0
LWPOLYLINE
  5
CD
100
AcDbEntity
  8
0
  6
ByLayer
 62
    2
370
   -1
100
AcDbPolyline
 90
   17
 70
    0
 43
0
 10
2843.858045296345
 20
810.4163030959375
 42
-0.2362172165162168
 10
2858.541505369533
 20
815.2504629918895
 10
2880.262936398445
 20
812.0062099948905
 42
-0.125186943191872
 10
2887.328883783013
 20
808.0580390442494
 10
2893.725052074327
 20
801.4414645286365
 42
-0.1903886243688741
 10
2895.61540438326
 20
796.6569582350714
 10
2895.61540438326
 20
783.6843701331672
 42
-0.414213562373076
 10
2888.615404383259
 20
776.6843701331668
 10
2841.024069058107
 20
776.6843701331668
 10
2841.024069058107
 20
782.0452434638398
 42
0.2840394112999032
 10
2839.918758652818
 20
783.833966619925
 10
2838.554898125619
 20
784.5161469887387
 42
0.1164709921781526
 10
2837.660208530908
 20
784.7274238326535
 10
2836.134349888803
 20
784.7274238326536
 42
-0.414213562373095
 10
2829.134349888804
 20
791.7274238326536
 42
-0.1609736774954619
 10
2830.94206216013
 20
795.8846388202581
 10
2843.685987381325
 20
810.2343714792814
  0
LWPOLYLINE
  5
CE
100
AcDbEntity
  8
0
  6
ByLayer
 62
    2
370
   -1
100
AcDbPolyline
 90
   17
 70
    0
 43
0
 10
2751.368045296345
 20
810.4163030959373
 42
-0.2362172165162158
 10
2766.051505369533
 20
815.2504629918895
 10
2787.772936398445
 20
812.0062099948905
 42
-0.125186943191872
 10
2794.838883783013
 20
808.0580390442494
 10
2801.235052074328
 20
801.4414645286365
 42
-0.1903886243688741
 10
2803.12540438326
 20
796.6569582350714
 10
2803.12540438326
 20
783.6843701331672
 42
-0.414213562373076
 10
2796.12540438326
 20
776.6843701331668
 10
2748.534069058107
 20
776.6843701331668
 10
2748.534069058107
 20
782.0452434638398
 42
0.2840394112998738
 10
2747.428758652818
 20
783.8339666199249
 10
2746.064898125619
 20
784.5161469887386
 42
0.116470992178146
 10
2745.170208530908
 20
784.7274238326535
 10
2743.644349888804
 20
784.7274238326536
 42
-0.414213562373095
 10
2736.644349888803
 20
791.7274238326536
 42
-0.1609736774954666
 10
2738.45206216013
 20
795.8846388202583
 10
2751.195987381326
 20
810.2343714792814
  0
LWPOLYLINE
  5
CF
100
AcDbEntity
  8
0
  6
ByLayer
 62
    2
370
   -1
100
AcDbPolyline
 90
   17
 70
    0
 43
0
 10
2658.788045296345
 20
810.4163030959373
 42
-0.2362172165162158
 10
2673.471505369533
 20
815.2504629918895
 10
2695.192936398445
 20
812.0062099948905
 42
-0.125186943191872
 10
2702.258883783013
 20
808.0580390442494
 10
2708.655052074328
 20
801.4414645286365
 42
-0.1903886243688741
 10
2710.54540438326
 20
796.6569582350714
 10
2710.54540438326
 20
783.6843701331672
 42
-0.414213562373076
 10
2703.54540438326
 20
776.6843701331668
 10
2655.954069058107
 20
776.6843701331668
 10
2655.954069058107
 20
782.0452434638398
 42
0.2840394112998698
 10
2654.848758652819
 20
783.8339666199248
 10
2653.484898125619
 20
784.5161469887386
 42
0.116470992178146
 10
2652.590208530908
 20
784.7274238326535
 10
2651.064349888804
 20
784.7274238326536
 42
-0.414213562373095
 10
2644.064349888803
 20
791.7274238326536
 42
-0.1609736774954666
 10
2645.87206216013
 20
795.8846388202583
 10
2658.615987381326
 20
810.2343714792814
  0
LWPOLYLINE
  5
D0
100
AcDbEntity
  8
0
  6
ByLayer
 62
    2
370
   -1
100
AcDbPolyline
 90
   17
 70
    0
 43
0
 10
2528.388045296345
 20
810.4163030959373
 42
-0.2362172165162158
 10
2543.071505369533
 20
815.2504629918895
 10
2564.792936398446
 20
812.0062099948904
 42
-0.1251869431918716
 10
2571.858883783013
 20
808.0580390442493
 10
2578.255052074327
 20
801.4414645286365
 42
-0.1903886243688741
 10
2580.14540438326
 20
796.6569582350714
 10
2580.14540438326
 20
783.6843701331672
 42
-0.414213562373076
 10
2573.14540438326
 20
776.6843701331668
 10
2525.554069058107
 20
776.6843701331668
 10
2525.554069058107
 20
782.0452434638398
 42
0.2840394112998738
 10
2524.448758652818
 20
783.8339666199249
 10
2523.084898125619
 20
784.5161469887386
 42
0.116470992178146
 10
2522.190208530908
 20
784.7274238326535
 10
2520.664349888804
 20
784.7274238326536
 42
-0.414213562373095
 10
2513.664349888804
 20
791.7274238326536
 42
-0.1609736774954574
 10
2515.47206216013
 20
795.884638820258
 10
2528.215987381325
 20
810.2343714792814
  0
LWPOLYLINE
  5
D1
100
AcDbEntity
  8
0
  6
ByLayer
 62
    2
370
   -1
100
AcDbPolyline
 90
   17
 70
    0
 43
0
 10
2435.458045296345
 20
810.4163030959373
 42
-0.2362172165162158
 10
2450.141505369533
 20
815.2504629918895
 10
2471.862936398446
 20
812.0062099948904
 42
-0.1251869431918716
 10
2478.928883783013
 20
808.0580390442493
 10
2485.325052074328
 20
801.4414645286365
 42
-0.1903886243688741
 10
2487.21540438326
 20
796.6569582350714
 10
2487.21540438326
 20
783.6843701331672
 42
-0.414213562373076
 10
2480.21540438326
 20
776.6843701331668
 10
2432.624069058107
 20
776.6843701331668
 10
2432.624069058107
 20
782.0452434638398
 42
0.2840394112998698
 10
2431.518758652819
 20
783.8339666199248
 10
2430.15489812562
 20
784.5161469887386
 42
0.1164709921781457
 10
2429.260208530908
 20
784.7274238326535
 10
2427.734349888804
 20
784.7274238326536
 42
-0.414213562373095
 10
2420.734349888804
 20
791.7274238326536
 42
-0.1609736774954666
 10
2422.54206216013
 20
795.8846388202583
 10
2435.285987381325
 20
810.2343714792814
  0
LWPOLYLINE
  5
D2
100
AcDbEntity
  8
0
  6
ByLayer
 62
    2
370
   -1
100
AcDbPolyline
 90
   17
 70
    0
 43
0
 10
2342.088045296345
 20
810.4163030959372
 42
-0.2362172165162148
 10
2356.771505369533
 20
815.2504629918897
 10
2378.492936398446
 20
812.0062099948905
 42
-0.1251869431918725
 10
2385.558883783013
 20
808.0580390442494
 10
2391.955052074328
 20
801.4414645286365
 42
-0.1903886243688741
 10
2393.84540438326
 20
796.6569582350714
 10
2393.84540438326
 20
783.6843701331672
 42
-0.414213562373076
 10
2386.84540438326
 20
776.6843701331668
 10
2339.254069058107
 20
776.6843701331668
 10
2339.254069058107
 20
782.0452434638398
 42
0.2840394112999039
 10
2338.148758652819
 20
783.833966619925
 10
2336.784898125619
 20
784.5161469887386
 42
0.116470992178146
 10
2335.890208530908
 20
784.7274238326535
 10
2334.364349888804
 20
784.7274238326536
 42
-0.414213562373095
 10
2327.364349888804
 20
791.7274238326536
 42
-0.1609736774954575
 10
2329.172062160131
 20
795.884638820258
 10
2341.915987381326
 20
810.2343714792814
  0
LWPOLYLINE
  5
D3
100
AcDbEntity
  8
0
  6
ByLayer
 62
    2
370
   -1
100
AcDbPolyline
 90
   17
 70
    0
 43
0
 10
3410.808045296345
 20
669.7663030959372
 42
-0.2362172165162159
 10
3425.491505369532
 20
674.6004629918895
 10
3447.212936398445
 20
671.3562099948902
 42
-0.1251869431918716
 10
3454.278883783012
 20
667.4080390442493
 10
3460.675052074327
 20
660.7914645286362
 42
-0.1903886243688698
 10
3462.565404383259
 20
656.0069582350714
 10
3462.565404383259
 20
643.034370133167
 42
-0.414213562373076
 10
3455.565404383259
 20
636.0343701331666
 10
3407.974069058107
 20
636.0343701331666
 10
3407.974069058107
 20
641.3952434638397
 42
0.2840394112998698
 10
3406.868758652819
 20
643.1839666199247
 10
3405.504898125619
 20
643.8661469887385
 42
0.116470992178146
 10
3404.610208530908
 20
644.0774238326534
 10
3403.084349888803
 20
644.0774238326535
 42
-0.414213562373095
 10
3396.084349888803
 20
651.0774238326535
 42
-0.1609736774954698
 10
3397.89206216013
 20
655.2346388202584
 10
3410.635987381325
 20
669.5843714792813
  0
LWPOLYLINE
  5
D4
100
AcDbEntity
  8
0
  6
ByLayer
 62
    2
370
   -1
100
AcDbPolyline
 90
   17
 70
    0
 43
0
 10
3317.878045296345
 20
669.7663030959374
 42
-0.2362172165162167
 10
3332.561505369532
 20
674.6004629918895
 10
3354.282936398445
 20
671.3562099948903
 42
-0.1251869431918725
 10
3361.348883783012
 20
667.4080390442494
 10
3367.745052074327
 20
660.7914645286362
 42
-0.1903886243688698
 10
3369.635404383259
 20
656.0069582350714
 10
3369.635404383259
 20
643.034370133167
 42
-0.414213562373076
 10
3362.635404383259
 20
636.0343701331666
 10
3315.044069058107
 20
636.0343701331666
 10
3315.044069058107
 20
641.3952434638397
 42
0.2840394112998483
 10
3313.938758652818
 20
643.1839666199247
 10
3312.574898125619
 20
643.8661469887385
 42
0.1164709921781465
 10
3311.680208530908
 20
644.0774238326534
 10
3310.154349888803
 20
644.0774238326535
 42
-0.414213562373095
 10
3303.154349888803
 20
651.0774238326535
 42
-0.1609736774954651
 10
3304.96206216013
 20
655.2346388202583
 10
3317.705987381325
 20
669.5843714792813
  0
LWPOLYLINE
  5
D5
100
AcDbEntity
  8
0
  6
ByLayer
 62
    2
370
   -1
100
AcDbPolyline
 90
   17
 70
    0
 43
0
 10
3187.478045296345
 20
669.7663030959371
 42
-0.236217216516215
 10
3202.161505369532
 20
674.6004629918896
 10
3223.882936398445
 20
671.3562099948903
 42
-0.125186943191872
 10
3230.948883783013
 20
667.4080390442494
 10
3237.345052074328
 20
660.7914645286361
 42
-0.1903886243688649
 10
3239.235404383258
 20
656.0069582350714
 10
3239.235404383259
 20
643.034370133167
 42
-0.414213562373076
 10
3232.235404383259
 20
636.0343701331666
 10
3184.644069058107
 20
636.0343701331666
 10
3184.644069058107
 20
641.3952434638397
 42
0.2840394112998738
 10
3183.538758652818
 20
643.1839666199248
 10
3182.174898125619
 20
643.8661469887385
 42
0.1164709921781457
 10
3181.280208530907
 20
644.0774238326534
 10
3179.754349888804
 20
644.0774238326535
 42
-0.414213562373095
 10
3172.754349888804
 20
651.0774238326535
 42
-0.1609736774954603
 10
3174.56206216013
 20
655.2346388202582
 10
3187.305987381325
 20
669.5843714792813
  0
LWPOLYLINE
  5
D6
100
AcDbEntity
  8
0
  6
ByLayer
 62
    2
370
   -1
100
AcDbPolyline
 90
   17
 70
    0
 43
0
 10
3094.898045296345
 20
669.7663030959374
 42
-0.2362172165162168
 10
3109.581505369533
 20
674.6004629918895
 10
3131.302936398445
 20
671.3562099948903
 42
-0.125186943191872
 10
3138.368883783013
 20
667.4080390442494
 10
3144.765052074327
 20
660.7914645286362
 42
-0.1903886243688699
 10
3146.65540438326
 20
656.0069582350714
 10
3146.65540438326
 20
643.034370133167
 42
-0.414213562373076
 10
3139.65540438326
 20
636.0343701331666
 10
3092.064069058107
 20
636.0343701331666
 10
3092.064069058107
 20
641.3952434638397
 42
0.2840394112999032
 10
3090.958758652818
 20
643.1839666199249
 10
3089.594898125619
 20
643.8661469887385
 42
0.1164709921781457
 10
3088.700208530907
 20
644.0774238326534
 10
3087.174349888804
 20
644.0774238326535
 42
-0.414213562373095
 10
3080.174349888804
 20
651.0774238326535
 42
-0.1609736774954603
 10
3081.98206216013
 20
655.2346388202582
 10
3094.725987381325
 20
669.5843714792813
  0
LWPOLYLINE
  5
D7
100
AcDbEntity
  8
0
  6
ByLayer
 62
    2
370
   -1
100
AcDbPolyline
 90
   17
 70
    0
 43
0
 10
3002.408045296345
 20
669.7663030959372
 42
-0.2362172165162158
 10
3017.091505369533
 20
674.6004629918895
 10
3038.812936398445
 20
671.3562099948903
 42
-0.125186943191872
 10
3045.878883783013
 20
667.4080390442494
 10
3052.275052074328
 20
660.7914645286362
 42
-0.1903886243688698
 10
3054.16540438326
 20
656.0069582350714
 10
3054.16540438326
 20
643.034370133167
 42
-0.414213562373076
 10
3047.16540438326
 20
636.0343701331666
 10
2999.574069058107
 20
636.0343701331666
 10
2999.574069058107
 20
641.3952434638397
 42
0.2840394112998698
 10
2998.468758652819
 20
643.1839666199247
 10
2997.104898125619
 20
643.8661469887385
 42
0.116470992178146
 10
2996.210208530908
 20
644.0774238326534
 10
2994.684349888804
 20
644.0774238326535
 42
-0.414213562373095
 10
2987.684349888803
 20
651.0774238326535
 42
-0.1609736774954696
 10
2989.49206216013
 20
655.2346388202584
 10
3002.235987381326
 20
669.5843714792813
  0
LWPOLYLINE
  5
D8
100
AcDbEntity
  8
0
  6
ByLayer
 62
    2
370
   -1
100
AcDbPolyline
 90
   17
 70
    0
 43
0
 10
2843.858045296345
 20
669.7663030959374
 42
-0.2362172165162168
 10
2858.541505369533
 20
674.6004629918895
 10
2880.262936398445
 20
671.3562099948903
 42
-0.125186943191872
 10
2887.328883783013
 20
667.4080390442494
 10
2893.725052074327
 20
660.7914645286362
 42
-0.1903886243688699
 10
2895.61540438326
 20
656.0069582350714
 10
2895.61540438326
 20
643.034370133167
 42
-0.414213562373076
 10
2888.615404383259
 20
636.0343701331666
 10
2841.024069058107
 20
636.0343701331666
 10
2841.024069058107
 20
641.3952434638397
 42
0.2840394112999032
 10
2839.918758652818
 20
643.1839666199249
 10
2838.554898125619
 20
643.8661469887386
 42
0.1164709921781526
 10
2837.660208530908
 20
644.0774238326534
 10
2836.134349888803
 20
644.0774238326535
 42
-0.414213562373095
 10
2829.134349888804
 20
651.0774238326535
 42
-0.1609736774954649
 10
2830.94206216013
 20
655.2346388202583
 10
2843.685987381325
 20
669.5843714792813
  0
LWPOLYLINE
  5
D9
100
AcDbEntity
  8
0
  6
ByLayer
 62
    2
370
   -1
100
AcDbPolyline
 90
   17
 70
    0
 43
0
 10
2751.368045296345
 20
669.7663030959372
 42
-0.2362172165162158
 10
2766.051505369533
 20
674.6004629918895
 10
2787.772936398445
 20
671.3562099948903
 42
-0.125186943191872
 10
2794.838883783013
 20
667.4080390442494
 10
2801.235052074328
 20
660.7914645286362
 42
-0.1903886243688698
 10
2803.12540438326
 20
656.0069582350714
 10
2803.12540438326
 20
643.034370133167
 42
-0.414213562373076
 10
2796.12540438326
 20
636.0343701331666
 10
2748.534069058107
 20
636.0343701331666
 10
2748.534069058107
 20
641.3952434638397
 42
0.2840394112998738
 10
2747.428758652818
 20
643.1839666199248
 10
2746.064898125619
 20
643.8661469887385
 42
0.116470992178146
 10
2745.170208530908
 20
644.0774238326534
 10
2743.644349888804
 20
644.0774238326535
 42
-0.414213562373095
 10
2736.644349888803
 20
651.0774238326535
 42
-0.1609736774954696
 10
2738.45206216013
 20
655.2346388202584
 10
2751.195987381326
 20
669.5843714792813
  0
LWPOLYLINE
  5
DA
100
AcDbEntity
  8
0
  6
ByLayer
 62
    2
370
   -1
100
AcDbPolyline
 90
   17
 70
    0
 43
0
 10
2658.788045296345
 20
669.7663030959372
 42
-0.2362172165162158
 10
2673.471505369533
 20
674.6004629918895
 10
2695.192936398445
 20
671.3562099948903
 42
-0.125186943191872
 10
2702.258883783013
 20
667.4080390442494
 10
2708.655052074328
 20
660.7914645286362
 42
-0.1903886243688698
 10
2710.54540438326
 20
656.0069582350714
 10
2710.54540438326
 20
643.034370133167
 42
-0.414213562373076
 10
2703.54540438326
 20
636.0343701331666
 10
2655.954069058107
 20
636.0343701331666
 10
2655.954069058107
 20
641.3952434638397
 42
0.2840394112998698
 10
2654.848758652819
 20
643.1839666199247
 10
2653.484898125619
 20
643.8661469887385
 42
0.116470992178146
 10
2652.590208530908
 20
644.0774238326534
 10
2651.064349888804
 20
644.0774238326535
 42
-0.414213562373095
 10
2644.064349888803
 20
651.0774238326535
 42
-0.1609736774954696
 10
2645.87206216013
 20
655.2346388202584
 10
2658.615987381326
 20
669.5843714792813
  0
LWPOLYLINE
  5
DB
100
AcDbEntity
  8
0
  6
ByLayer
 62
    2
370
   -1
100
AcDbPolyline
 90
   17
 70
    0
 43
0
 10
2528.388045296345
 20
669.7663030959372
 42
-0.2362172165162158
 10
2543.071505369533
 20
674.6004629918895
 10
2564.792936398446
 20
671.3562099948902
 42
-0.1251869431918716
 10
2571.858883783013
 20
667.4080390442493
 10
2578.255052074327
 20
660.7914645286362
 42
-0.1903886243688699
 10
2580.14540438326
 20
656.0069582350714
 10
2580.14540438326
 20
643.034370133167
 42
-0.414213562373076
 10
2573.14540438326
 20
636.0343701331666
 10
2525.554069058107
 20
636.0343701331666
 10
2525.554069058107
 20
641.3952434638397
 42
0.2840394112998738
 10
2524.448758652818
 20
643.1839666199248
 10
2523.084898125619
 20
643.8661469887385
 42
0.116470992178146
 10
2522.190208530908
 20
644.0774238326534
 10
2520.664349888804
 20
644.0774238326535
 42
-0.414213562373095
 10
2513.664349888804
 20
651.0774238326535
 42
-0.1609736774954603
 10
2515.47206216013
 20
655.2346388202582
 10
2528.215987381325
 20
669.5843714792813
  0
LWPOLYLINE
  5
DC
100
AcDbEntity
  8
0
  6
ByLayer
 62
    2
370
   -1
100
AcDbPolyline
 90
   17
 70
    0
 43
0
 10
2435.458045296345
 20
669.7663030959372
 42
-0.2362172165162158
 10
2450.141505369533
 20
674.6004629918895
 10
2471.862936398446
 20
671.3562099948902
 42
-0.1251869431918716
 10
2478.928883783013
 20
667.4080390442493
 10
2485.325052074328
 20
660.7914645286362
 42
-0.1903886243688698
 10
2487.21540438326
 20
656.0069582350714
 10
2487.21540438326
 20
643.034370133167
 42
-0.414213562373076
 10
2480.21540438326
 20
636.0343701331666
 10
2432.624069058107
 20
636.0343701331666
 10
2432.624069058107
 20
641.3952434638397
 42
0.2840394112998698
 10
2431.518758652819
 20
643.1839666199247
 10
2430.15489812562
 20
643.8661469887385
 42
0.1164709921781457
 10
2429.260208530908
 20
644.0774238326534
 10
2427.734349888804
 20
644.0774238326535
 42
-0.414213562373095
 10
2420.734349888804
 20
651.0774238326535
 42
-0.1609736774954696
 10
2422.54206216013
 20
655.2346388202584
 10
2435.285987381325
 20
669.5843714792813
  0
LWPOLYLINE
  5
DD
100
AcDbEntity
  8
0
  6
ByLayer
 62
    2
370
   -1
100
AcDbPolyline
 90
   17
 70
    0
 43
0
 10
2342.088045296345
 20
669.7663030959371
 42
-0.2362172165162148
 10
2356.771505369533
 20
674.6004629918896
 10
2378.492936398446
 20
671.3562099948903
 42
-0.1251869431918725
 10
2385.558883783013
 20
667.4080390442494
 10
2391.955052074328
 20
660.7914645286362
 42
-0.1903886243688698
 10
2393.84540438326
 20
656.0069582350714
 10
2393.84540438326
 20
643.034370133167
 42
-0.414213562373076
 10
2386.84540438326
 20
636.0343701331666
 10
2339.254069058107
 20
636.0343701331666
 10
2339.254069058107
 20
641.3952434638397
 42
0.2840394112999039
 10
2338.148758652819
 20
643.1839666199249
 10
2336.784898125619
 20
643.8661469887385
 42
0.116470992178146
 10
2335.890208530908
 20
644.0774238326534
 10
2334.364349888804
 20
644.0774238326535
 42
-0.414213562373095
 10
2327.364349888804
 20
651.0774238326535
 42
-0.1609736774954606
 10
2329.172062160131
 20
655.2346388202582
 10
2341.915987381326
 20
669.5843714792813
  0
LINE
  5
DE
100
AcDbEntity
  8
0
  6
ByLayer
 62
  256
370
   -1
100
AcDbLine
 10
1691.649877136032
 20
2802.678616386579
 11
4191.649877136033
 21
2802.678616386579
  0
LINE
  5
DF
100
AcDbEntity
  8
0
  6
ByLayer
 62
  256
370
   -1
100
AcDbLine
 10
1691.649877136032
 20
302.6786163865797
 11
4191.649877136033
 21
302.6786163865797
  0
LINE
  5
E0
100
AcDbEntity
  8
0
  6
ByLayer
 62
  256
370
   -1
100
AcDbLine
 10
1691.649877136032
 20
2802.678616386579
 11
1691.649877136032
 21
302.6786163865797
  0
LINE
  5
E1
100
AcDbEntity
  8
0
  6
ByLayer
 62
  256
370
   -1
100
AcDbLine
 10
4191.649877136033
 20
2802.678616386579
 11
4191.649877136033
 21
302.6786163865797
  0
LINE
  5
E2
100
AcDbEntity
  8
0
  6
ByLayer
 62
  256
370
   -1
100
AcDbLine
 10
1841.649877136032
 20
2652.678616386579
 11
1841.649877136032
 21
452.6786163865797
  0
LINE
  5
E3
100
AcDbEntity
  8
0
  6
ByLayer
 62
  256
370
   -1
100
AcDbLine
 10
4041.649877136033
 20
2652.678616386579
 11
4041.649877136033
 21
452.6786163865797
  0
LINE
  5
E4
100
AcDbEntity
  8
0
  6
ByLayer
 62
  256
370
   -1
100
AcDbLine
 10
1841.649877136032
 20
2652.678616386579
 11
4041.649877136032
 21
2652.678616386579
  0
LINE
  5
E5
100
AcDbEntity
  8
0
  6
ByLayer
 62
  256
370
   -1
100
AcDbLine
 10
1841.649877136032
 20
452.6786163865797
 11
4041.649877136032
 21
452.6786163865797
  0
MTEXT
  5
E6
100
AcDbEntity
  8
0
  6
ByLayer
 62
  256
370
   -1
100
AcDbMText
 10
1934.333805173828
 20
2601.586250525652
 30
0
 40
50
 41
33.33333333333333
 71
    1
 72
    5
  1
A
  7
standard
210
0
220
0
230
1
 50
0
 73
    1
 44
1
  0
ENDSEC
  0
SECTION
  2
OBJECTS
  0
DICTIONARY
  5
C
330
0
100
AcDbDictionary
281
    1
  3
ACAD_GROUP
350
D
  0
DICTIONARY
  5
D
330
C
100
AcDbDictionary
281
    1
  0
ENDSEC
  0
EOF
