999
dxfrw 0.6.3
  0
SECTION
  2
HEADER
  9
$ACADVER
  1
AC1021
  9
$DWGCODEPAGE
  3
ANSI_1252
  9
$INSBASE
 10
0
 20
0
 30
0
  9
$EXTMIN
 10
-70
 20
0
 30
0
  9
$EXTMAX
 10
200
 20
360
 30
0
  9
$LIMMIN
 10
0
 20
0
  9
$LIMMAX
 10
420
 20
297
  9
$ORTHOMODE
 70
    0
  9
$REGENMODE
 70
    1
  9
$FILLMODE
 70
    1
  9
$QTEXTMODE
 70
    0
  9
$MIRRTEXT
 70
    0
  9
$LTSCALE
 40
1
  9
$ATTMODE
 70
    0
  9
$TEXTSIZE
 40
2.5
  9
$TRACEWID
 40
15.68
  9
$TEXTSTYLE
  7
STANDARD
  9
$CLAYER
  8
0
  9
$CELTYPE
  6
BYLAYER
  9
$CECOLOR
 62
  256
  9
$CELTSCALE
 40
1
  9
$DISPSILH
 70
    0
  9
$DIMSCALE
 40
2.5
  9
$DIMASZ
 40
2.5
  9
$DIMEXO
 40
0.625
  9
$DIMDLI
 40
3.75
  9
$DIMRND
 40
0
  9
$DIMDLE
 40
0
  9
$DIMEXE
 40
1.25
  9
$DIMTP
 40
0
  9
$DIMTM
 40
0
  9
$DIMTXT
 40
2.5
  9
$DIMCEN
 40
2.5
  9
$DIMTSZ
 40
0
  9
$DIMTOL
 70
    0
  9
$DIMLIM
 70
    0
  9
$DIMTIH
 70
    0
  9
$DIMTOH
 70
    0
  9
$DIMSE1
 70
    0
  9
$DIMSE2
 70
    0
  9
$DIMTAD
 70
    1
  9
$DIMZIN
 70
    8
  9
$DIMBLK
  1

  9
$DIMASO
 70
    1
  9
$DIMSHO
 70
    1
  9
$DIMPOST
  1

  9
$DIMAPOST
  1

  9
$DIMALT
 70
    0
  9
$DIMALTD
 70
    3
  9
$DIMALTF
 40
0.03937
  9
$DIMLFAC
 40
1
  9
$DIMTOFL
 70
    1
  9
$DIMTVP
 40
0
  9
$DIMTIX
 70
    0
  9
$DIMSOXD
 70
    0
  9
$DIMSAH
 70
    0
  9
$DIMBLK1
  1

  9
$DIMBLK2
  1

  9
$DIMSTYLE
  2
STANDARD
  9
$DIMCLRD
 70
    0
  9
$DIMCLRE
 70
    0
  9
$DIMCLRT
 70
    0
  9
$DIMTFAC
 40
1
  9
$DIMGAP
 40
0.625
  9
$DIMJUST
 70
    0
  9
$DIMSD1
 70
    0
  9
$DIMSD2
 70
    0
  9
$DIMTOLJ
 70
    0
  9
$DIMTZIN
 70
    8
  9
$DIMALTZ
 70
    0
  9
$DIMALTTZ
 70
    0
  9
$DIMUPT
 70
    0
  9
$DIMDEC
 70
    2
  9
$DIMTDEC
 70
    2
  9
$DIMALTU
 70
    2
  9
$DIMALTTD
 70
    3
  9
$DIMTXSTY
  7
STANDARD
  9
$DIMAUNIT
 70
    0
  9
$DIMADEC
 70
    0
  9
$DIMALTRND
 40
0
  9
$DIMAZIN
 70
    0
  9
$DIMDSEP
 70
   44
  9
$DIMATFIT
 70
    3
  9
$DIMFRAC
 70
    0
  9
$DIMLDRBLK
  1
STANDARD
  9
$DIMLUNIT
 70
    2
  9
$DIMLWD
 70
   -2
  9
$DIMLWE
 70
   -2
  9
$DIMTMOVE
 70
    0
  9
$DIMFXL
 40
1
  9
$DIMFXLON
 70
    0
  9
$DIMJOGANG
 40
0.7854
  9
$DIMTFILL
 70
    0
  9
$DIMTFILLCLR
 70
    0
  9
$DIMARCSYM
 70
    0
  9
$DIMLTYPE
  6

  9
$DIMLTEX1
  6

  9
$DIMLTEX2
  6

  9
$LUNITS
 70
    2
  9
$LUPREC
 70
    4
  9
$SKETCHINC
 40
1
  9
$FILLETRAD
 40
0
  9
$AUNITS
 70
    0
  9
$AUPREC
 70
    2
  9
$MENU
  1
.
  9
$ELEVATION
 40
0
  9
$PELEVATION
 40
0
  9
$THICKNESS
 40
0
  9
$LIMCHECK
 70
    0
  9
$CHAMFERA
 40
0
  9
$CHAMFERB
 40
0
  9
$CHAMFERC
 40
0
  9
$CHAMFERD
 40
0
  9
$SKPOLY
 70
    0
  9
$USRTIMER
 70
    1
  9
$ANGBASE
 50
0
  9
$ANGDIR
 70
    0
  9
$PDMODE
 70
   34
  9
$PDSIZE
 40
0
  9
$PLINEWID
 40
0
  9
$SPLFRAME
 70
    0
  9
$SPLINETYPE
 70
    2
  9
$SPLINESEGS
 70
    8
  9
$HANDSEED
  5
20000
  9
$SURFTAB1
 70
    6
  9
$SURFTAB2
 70
    6
  9
$SURFTYPE
 70
    6
  9
$SURFU
 70
    6
  9
$SURFV
 70
    6
  9
$UCSBASE
  2

  9
$UCSNAME
  2

  9
$UCSORG
 10
0
 20
0
 30
0
  9
$UCSXDIR
 10
1
 20
0
 30
0
  9
$UCSYDIR
 10
0
 20
1
 30
0
  9
$UCSORTHOREF
  2

  9
$UCSORTHOVIEW
 70
    0
  9
$UCSORGTOP
 10
0
 20
0
 30
0
  9
$UCSORGBOTTOM
 10
0
 20
0
 30
0
  9
$UCSORGLEFT
 10
0
 20
0
 30
0
  9
$UCSORGRIGHT
 10
0
 20
0
 30
0
  9
$UCSORGFRONT
 10
0
 20
0
 30
0
  9
$UCSORGBACK
 10
0
 20
0
 30
0
  9
$PUCSBASE
  2

  9
$PUCSNAME
  2

  9
$PUCSORG
 10
0
 20
0
 30
0
  9
$PUCSXDIR
 10
1
 20
0
 30
0
  9
$PUCSYDIR
 10
0
 20
1
 30
0
  9
$PUCSORTHOREF
  2

  9
$PUCSORTHOVIEW
 70
    0
  9
$PUCSORGTOP
 10
0
 20
0
 30
0
  9
$PUCSORGBOTTOM
 10
0
 20
0
 30
0
  9
$PUCSORGLEFT
 10
0
 20
0
 30
0
  9
$PUCSORGRIGHT
 10
0
 20
0
 30
0
  9
$PUCSORGFRONT
 10
0
 20
0
 30
0
  9
$PUCSORGBACK
 10
0
 20
0
 30
0
  9
$USERI1
 70
    0
  9
$USERI2
 70
    0
  9
$USERI3
 70
    0
  9
$USERI4
 70
    0
  9
$USERI5
 70
    0
  9
$USERR1
 40
0
  9
$USERR2
 40
0
  9
$USERR3
 40
0
  9
$USERR4
 40
0
  9
$USERR5
 40
0
  9
$WORLDVIEW
 70
    1
  9
$SHADEDGE
 70
    3
  9
$SHADEDIF
 70
   70
  9
$TILEMODE
 70
    1
  9
$MAXACTVP
 70
   64
  9
$PINSBASE
 10
0
 20
0
 30
0
  9
$PLIMCHECK
 70
    0
  9
$PEXTMIN
 10
0
 20
0
 30
0
  9
$PEXTMAX
 10
0
 20
0
 30
0
  9
$GRIDMODE
 70
    1
  9
$SNAPSTYLE
 70
    0
  9
$PLIMMIN
 10
0
 20
0
  9
$PLIMMAX
 10
297
 20
210
  9
$UNITMODE
 70
    0
  9
$VISRETAIN
 70
    1
  9
$PLINEGEN
 70
    0
  9
$PSLTSCALE
 70
    1
  9
$TREEDEPTH
 70
 3020
  9
$CMLSTYLE
  2
Standard
  9
$CMLJUST
 70
    0
  9
$CMLSCALE
 40
20
  9
$PROXYGRAPHICS
 70
    1
  9
$MEASUREMENT
 70
    1
  9
$CELWEIGHT
370
   -1
  9
$ENDCAPS
280
    0
  9
$JOINSTYLE
280
    0
  9
$LWDISPLAY
290
    0
  9
$INSUNITS
 70
    0
  9
$HYPERLINKBASE
  1

  9
$STYLESHEET
  1

  9
$XEDIT
290
    1
  9
$CEPSNTYPE
380
    0
  9
$PSTYLEMODE
290
    1
  9
$EXTNAMES
290
    1
  9
$PSVPSCALE
 40
1
  9
$OLESTARTUP
290
    0
  9
$SORTENTS
280
  127
  9
$INDEXCTL
280
    0
  9
$HIDETEXT
280
    1
  9
$XCLIPFRAME
290
    0
  9
$HALOGAP
280
    0
  9
$OBSCOLOR
 70
  257
  9
$OBSLTYPE
280
    0
  9
$INTERSECTIONDISPLAY
280
    0
  9
$INTERSECTIONCOLOR
 70
  257
  9
$DIMASSOC
280
    1
  9
$PROJECTNAME
  1

  9
$CAMERADISPLAY
290
    0
  9
$LENSLENGTH
 40
50
  9
$CAMERAHEIGHT
 40
0
  9
$STEPSPERSEC
 40
2
  9
$STEPSIZE
 40
50
  9
$3DDWFPREC
 40
2
  9
$PSOLWIDTH
 40
5
  9
$PSOLHEIGHT
 40
80
  9
$LOFTANG1
 40
1.570796326794897
  9
$LOFTANG2
 40
1.570796326794897
  9
$LOFTMAG1
 40
0
  9
$LOFTMAG2
 40
0
  9
$LOFTPARAM
 70
    7
  9
$LOFTNORMALS
280
    1
  9
$LATITUDE
 40
1
  9
$LONGITUDE
 40
1
  9
$NORTHDIRECTION
 40
0
  9
$TIMEZONE
 70
-8000
  9
$LIGHTGLYPHDISPLAY
280
    1
  9
$TILEMODELIGHTSYNCH
280
    1
  9
$SOLIDHIST
280
    1
  9
$SHOWHIST
280
    1
  9
$DWFFRAME
280
    2
  9
$DGNFRAME
280
    0
  9
$REALWORLDSCALE
290
    1
  9
$INTERFERECOLOR
 62
    1
  9
$CSHADOW
280
    0
  9
$SHADOWPLANELOCATION
 40
0
  0
ENDSEC
  0
SECTION
  2
CLASSES
  0
ENDSEC
  0
SECTION
  2
TABLES
  0
TABLE
  2
VPORT
  5
8
330
0
100
AcDbSymbolTable
 70
    1
  0
VPORT
  5
31
330
2
100
AcDbSymbolTableRecord
100
AcDbViewportTableRecord
  2
*ACTIVE
 70
    0
 10
0
 20
0
 11
1
 21
1
 12
186.046511627907
 22
130.6703146374829
 13
0
 23
0
 14
10
 24
10
 15
10
 25
10
 16
0
 26
0
 36
1
 17
0
 27
0
 37
0
 40
328.7551299589604
 41
1.988015978695073
 42
50
 43
0
 44
0
 50
0
 51
0
 71
    0
 72
  100
 73
    1
 74
    3
 75
    0
 76
    1
 77
    0
 78
    0
281
    0
 65
    1
110
0
120
0
130
0
111
1
121
0
131
0
112
0
122
1
132
0
 79
    0
146
0
348
10020
 60
    7
 61
    5
292
1
282
    1
141
0
142
0
 63
  250
421
3358443
  0
ENDTAB
  0
TABLE
  2
LTYPE
  5
5
330
0
100
AcDbSymbolTable
 70
    4
  0
LTYPE
  5
14
330
5
100
AcDbSymbolTableRecord
100
AcDbLinetypeTableRecord
  2
ByBlock
 70
    0
  3

 72
   65
 73
    0
 40
0
  0
LTYPE
  5
15
330
5
100
AcDbSymbolTableRecord
100
AcDbLinetypeTableRecord
  2
ByLayer
 70
    0
  3

 72
   65
 73
    0
 40
0
  0
LTYPE
  5
16
330
5
100
AcDbSymbolTableRecord
100
AcDbLinetypeTableRecord
  2
Continuous
 70
    0
  3
Solid line
 72
   65
 73
    0
 40
0
  0
LTYPE
  5
32
330
5
100
AcDbSymbolTableRecord
100
AcDbLinetypeTableRecord
  2
DOT
 70
    0
  3
Dot . . . . . . . . . . . . . . . . . . . . . .
 72
   65
 73
    2
 40
6.35
 49
0
 74
    0
 49
-6.35
 74
    0
  0
LTYPE
  5
33
330
5
100
AcDbSymbolTableRecord
100
AcDbLinetypeTableRecord
  2
DOTTINY
 70
    0
  3
Dot (.15x) .....................................
 72
   65
 73
    2
 40
0.9525
 49
0
 74
    0
 49
-0.9525
 74
    0
  0
LTYPE
  5
34
330
5
100
AcDbSymbolTableRecord
100
AcDbLinetypeTableRecord
  2
DOT2
 70
    0
  3
Dot (.5x) .....................................
 72
   65
 73
    2
 40
3.175
 49
0
 74
    0
 49
-3.175
 74
    0
  0
LTYPE
  5
35
330
5
100
AcDbSymbolTableRecord
100
AcDbLinetypeTableRecord
  2
DOTX2
 70
    0
  3
Dot (2x) .  .  .  .  .  .  .  .  .  .  .  .  .
 72
   65
 73
    2
 40
12.7
 49
0
 74
    0
 49
-12.7
 74
    0
  0
LTYPE
  5
36
330
5
100
AcDbSymbolTableRecord
100
AcDbLinetypeTableRecord
  2
DASHED
 70
    0
  3
Dashed _ _ _ _ _ _ _ _ _ _ _ _ _ _ _ _ _
 72
   65
 73
    2
 40
19.05
 49
12.7
 74
    0
 49
-6.35
 74
    0
  0
LTYPE
  5
37
330
5
100
AcDbSymbolTableRecord
100
AcDbLinetypeTableRecord
  2
DASHEDTINY
 70
    0
  3
Dashed (.15x) _ _ _ _ _ _ _ _ _ _ _ _ _ _ _ _ _
 72
   65
 73
    2
 40
2.8575
 49
1.905
 74
    0
 49
-0.9525
 74
    0
  0
LTYPE
  5
38
330
5
100
AcDbSymbolTableRecord
100
AcDbLinetypeTableRecord
  2
DASHED2
 70
    0
  3
Dashed (.5x) _ _ _ _ _ _ _ _ _ _ _ _ _ _ _ _ _
 72
   65
 73
    2
 40
9.524999999999999
 49
6.35
 74
    0
 49
-3.175
 74
    0
  0
LTYPE
  5
39
330
5
100
AcDbSymbolTableRecord
100
AcDbLinetypeTableRecord
  2
DASHEDX2
 70
    0
  3
Dashed (2x) ____  ____  ____  ____  ____  ___
 72
   65
 73
    2
 40
38.09999999999999
 49
25.4
 74
    0
 49
-12.7
 74
    0
  0
LTYPE
  5
3A
330
5
100
AcDbSymbolTableRecord
100
AcDbLinetypeTableRecord
  2
DASHDOT
 70
    0
  3
Dash dot __ . __ . __ . __ . __ . __ . __ . __
 72
   65
 73
    4
 40
25.4
 49
12.7
 74
    0
 49
-6.35
 74
    0
 49
0
 74
    0
 49
-6.35
 74
    0
  0
LTYPE
  5
3B
330
5
100
AcDbSymbolTableRecord
100
AcDbLinetypeTableRecord
  2
DASHDOTTINY
 70
    0
  3
Dash dot (.15x) _._._._._._._._._._._._._._._.
 72
   65
 73
    4
 40
3.81
 49
1.905
 74
    0
 49
-0.9525
 74
    0
 49
0
 74
    0
 49
-0.9525
 74
    0
  0
LTYPE
  5
3C
330
5
100
AcDbSymbolTableRecord
100
AcDbLinetypeTableRecord
  2
DASHDOT2
 70
    0
  3
Dash dot (.5x) _._._._._._._._._._._._._._._.
 72
   65
 73
    4
 40
12.7
 49
6.35
 74
    0
 49
-3.175
 74
    0
 49
0
 74
    0
 49
-3.175
 74
    0
  0
LTYPE
  5
3D
330
5
100
AcDbSymbolTableRecord
100
AcDbLinetypeTableRecord
  2
DASHDOTX2
 70
    0
  3
Dash dot (2x) ____  .  ____  .  ____  .  ___
 72
   65
 73
    4
 40
50.8
 49
25.4
 74
    0
 49
-12.7
 74
    0
 49
0
 74
    0
 49
-12.7
 74
    0
  0
LTYPE
  5
3E
330
5
100
AcDbSymbolTableRecord
100
AcDbLinetypeTableRecord
  2
DIVIDE
 70
    0
  3
Divide ____ . . ____ . . ____ . . ____ . . ____
 72
   65
 73
    6
 40
31.75
 49
12.7
 74
    0
 49
-6.35
 74
    0
 49
0
 74
    0
 49
-6.35
 74
    0
 49
0
 74
    0
 49
-6.35
 74
    0
  0
LTYPE
  5
3F
330
5
100
AcDbSymbolTableRecord
100
AcDbLinetypeTableRecord
  2
DIVIDETINY
 70
    0
  3
Divide (.15x) __..__..__..__..__..__..__..__.._
 72
   65
 73
    6
 40
4.7625
 49
1.905
 74
    0
 49
-0.9525
 74
    0
 49
0
 74
    0
 49
-0.9525
 74
    0
 49
0
 74
    0
 49
-0.9525
 74
    0
  0
LTYPE
  5
40
330
5
100
AcDbSymbolTableRecord
100
AcDbLinetypeTableRecord
  2
DIVIDE2
 70
    0
  3
Divide (.5x) __..__..__..__..__..__..__..__.._
 72
   65
 73
    6
 40
15.875
 49
6.35
 74
    0
 49
-3.175
 74
    0
 49
0
 74
    0
 49
-3.175
 74
    0
 49
0
 74
    0
 49
-3.175
 74
    0
  0
LTYPE
  5
41
330
5
100
AcDbSymbolTableRecord
100
AcDbLinetypeTableRecord
  2
DIVIDEX2
 70
    0
  3
Divide (2x) ________  .  .  ________  .  .  _
 72
   65
 73
    6
 40
63.5
 49
25.4
 74
    0
 49
-12.7
 74
    0
 49
0
 74
    0
 49
-12.7
 74
    0
 49
0
 74
    0
 49
-12.7
 74
    0
  0
LTYPE
  5
42
330
5
100
AcDbSymbolTableRecord
100
AcDbLinetypeTableRecord
  2
BORDER
 70
    0
  3
Border __ __ . __ __ . __ __ . __ __ . __ __ .
 72
   65
 73
    6
 40
44.45
 49
12.7
 74
    0
 49
-6.35
 74
    0
 49
12.7
 74
    0
 49
-6.35
 74
    0
 49
0
 74
    0
 49
-6.35
 74
    0
  0
LTYPE
  5
43
330
5
100
AcDbSymbolTableRecord
100
AcDbLinetypeTableRecord
  2
BORDERTINY
 70
    0
  3
Border (.15x) __.__.__.__.__.__.__.__.__.__.__.
 72
   65
 73
    6
 40
6.6675
 49
1.905
 74
    0
 49
-0.9525
 74
    0
 49
1.905
 74
    0
 49
-0.9525
 74
    0
 49
0
 74
    0
 49
-0.9525
 74
    0
  0
LTYPE
  5
44
330
5
100
AcDbSymbolTableRecord
100
AcDbLinetypeTableRecord
  2
BORDER2
 70
    0
  3
Border (.5x) __.__.__.__.__.__.__.__.__.__.__.
 72
   65
 73
    6
 40
22.225
 49
6.35
 74
    0
 49
-3.175
 74
    0
 49
6.35
 74
    0
 49
-3.175
 74
    0
 49
0
 74
    0
 49
-3.175
 74
    0
  0
LTYPE
  5
45
330
5
100
AcDbSymbolTableRecord
100
AcDbLinetypeTableRecord
  2
BORDERX2
 70
    0
  3
Border (2x) ____  ____  .  ____  ____  .  ___
 72
   65
 73
    6
 40
88.89999999999999
 49
25.4
 74
    0
 49
-12.7
 74
    0
 49
25.4
 74
    0
 49
-12.7
 74
    0
 49
0
 74
    0
 49
-12.7
 74
    0
  0
LTYPE
  5
46
330
5
100
AcDbSymbolTableRecord
100
AcDbLinetypeTableRecord
  2
CENTER
 70
    0
  3
Center ____ _ ____ _ ____ _ ____ _ ____ _ ____
 72
   65
 73
    4
 40
50.8
 49
31.75
 74
    0
 49
-6.35
 74
    0
 49
6.35
 74
    0
 49
-6.35
 74
    0
  0
LTYPE
  5
47
330
5
100
AcDbSymbolTableRecord
100
AcDbLinetypeTableRecord
  2
CENTERTINY
 70
    0
  3
Center (.15x) ___ _ ___ _ ___ _ ___ _ ___ _ ___
 72
   65
 73
    4
 40
7.619999999999999
 49
4.7625
 74
    0
 49
-0.9525
 74
    0
 49
0.9525
 74
    0
 49
-0.9525
 74
    0
  0
LTYPE
  5
48
330
5
100
AcDbSymbolTableRecord
100
AcDbLinetypeTableRecord
  2
CENTER2
 70
    0
  3
Center (.5x) ___ _ ___ _ ___ _ ___ _ ___ _ ___
 72
   65
 73
    4
 40
28.575
 49
19.05
 74
    0
 49
-3.175
 74
    0
 49
3.175
 74
    0
 49
-3.175
 74
    0
  0
LTYPE
  5
49
330
5
100
AcDbSymbolTableRecord
100
AcDbLinetypeTableRecord
  2
CENTERX2
 70
    0
  3
Center (2x) ________  __  ________  __  _____
 72
   65
 73
    4
 40
101.6
 49
63.5
 74
    0
 49
-12.7
 74
    0
 49
12.7
 74
    0
 49
-12.7
 74
    0
  0
ENDTAB
  0
TABLE
  2
LAYER
  5
2
330
0
100
AcDbSymbolTable
 70
    1
  0
LAYER
  5
10
330
2
100
AcDbSymbolTableRecord
100
AcDbLayerTableRecord
  2
0
 70
    0
 62
    7
  6
CONTINUOUS
370
    0
390
F
  0
LAYER
  5
4A
330
2
100
AcDbSymbolTableRecord
100
AcDbLayerTableRecord
  2
CorpoCaricatore
 70
    4
 62
    7
  6
CONTINUOUS
370
    0
390
F
  0
LAYER
  5
4B
330
2
100
AcDbSymbolTableRecord
100
AcDbLayerTableRecord
  2
PonteRinforzo
 70
    4
 62
    6
  6
CONTINUOUS
370
    0
390
F
  0
LAYER
  5
4C
330
2
100
AcDbSymbolTableRecord
100
AcDbLayerTableRecord
  2
forcella
 70
    4
 62
    7
  6
CONTINUOUS
370
    0
390
F
  0
LAYER
  5
4D
330
2
100
AcDbSymbolTableRecord
100
AcDbLayerTableRecord
  2
pistaCaricatore
 70
    4
 62
    3
  6
CONTINUOUS
370
    0
390
F
  0
LAYER
  5
4E
330
2
100
AcDbSymbolTableRecord
100
AcDbLayerTableRecord
  2
sopra
 70
    4
 62
    4
  6
CONTINUOUS
370
    0
390
F
  0
LAYER
  5
4F
330
2
100
AcDbSymbolTableRecord
100
AcDbLayerTableRecord
  2
sotto
 70
    4
 62
    3
  6
CONTINUOUS
370
    0
390
F
  0
LAYER
  5
50
330
2
100
AcDbSymbolTableRecord
100
AcDbLayerTableRecord
  2
topCaricatore2
 70
    4
 62
    1
  6
CONTINUOUS
370
    0
390
F
  0
ENDTAB
  0
TABLE
  2
STYLE
  5
3
330
0
100
AcDbSymbolTable
 70
    3
  0
STYLE
  5
51
330
2
100
AcDbSymbolTableRecord
100
AcDbTextStyleTableRecord
  2
Standard
 70
    0
 40
0
 41
1
 50
0
 71
    0
 42
1
  3
txt
  4

  0
ENDTAB
  0
TABLE
  2
VIEW
  5
6
330
0
100
AcDbSymbolTable
 70
    0
  0
ENDTAB
  0
TABLE
  2
UCS
  5
7
330
0
100
AcDbSymbolTable
 70
    0
  0
ENDTAB
  0
TABLE
  2
APPID
  5
9
330
0
100
AcDbSymbolTable
 70
    1
  0
APPID
  5
12
330
9
100
AcDbSymbolTableRecord
100
AcDbRegAppTableRecord
  2
ACAD
 70
    0
  0
APPID
  5
52
330
9
100
AcDbSymbolTableRecord
100
AcDbRegAppTableRecord
  2
LibreCad
 70
    0
  0
ENDTAB
  0
TABLE
  2
DIMSTYLE
  5
A
330
0
100
AcDbSymbolTable
 70
    1
100
AcDbDimStyleTable
 71
    1
  0
DIMSTYLE
105
53
330
A
100
AcDbSymbolTableRecord
100
AcDbDimStyleTableRecord
  2
Standard
 70
    0
 40
2.5
 41
2.5
 42
0.625
 43
0.38
 44
1.25
 45
0
 46
0
 47
0
 48
0
 49
1
140
2.5
141
0.09
142
0
143
25.4
144
1
145
0
146
1
147
0.625
148
0
 71
    0
 72
    0
 73
    0
 74
    1
 75
    0
 76
    0
 77
    0
 78
    8
 79
    0
170
    0
171
    2
172
    0
173
    0
174
    0
175
    0
176
    0
177
    0
178
    0
179
    0
271
    2
272
    4
273
    2
274
    2
275
    0
276
    0
277
    2
278
   44
279
    0
280
    0
281
    0
282
    0
283
    1
284
    0
285
    0
286
    0
288
    0
289
    3
340
STANDARD
341

371
   -2
372
   -2
  0
ENDTAB
  0
TABLE
  2
BLOCK_RECORD
  5
1
330
0
100
AcDbSymbolTable
 70
    2
  0
BLOCK_RECORD
  5
1F
330
1
100
AcDbSymbolTableRecord
100
AcDbBlockTableRecord
  2
*Model_Space
 70
    0
280
    1
281
    0
  0
BLOCK_RECORD
  5
1E
330
1
100
AcDbSymbolTableRecord
100
AcDbBlockTableRecord
  2
*Paper_Space
 70
    0
280
    1
281
    0
  0
ENDTAB
  0
ENDSEC
  0
SECTION
  2
BLOCKS
  0
BLOCK
  5
20
330
1F
100
AcDbEntity
  8
0
100
AcDbBlockBegin
  2
*Model_Space
 70
    0
 10
0
 20
0
 30
0
  3
*Model_Space
  1

  0
ENDBLK
  5
21
330
1F
100
AcDbEntity
  8
0
100
AcDbBlockEnd
  0
BLOCK
  5
1C
330
1B
100
AcDbEntity
  8
0
100
AcDbBlockBegin
  2
*Paper_Space
 70
    0
 10
0
 20
0
 30
0
  3
*Paper_Space
  1

  0
ENDBLK
  5
1D
330
1F
100
AcDbEntity
  8
0
100
AcDbBlockEnd
  0
ENDSEC
  0
SECTION
  2
ENTITIES
  0
LINE
  5
54
100
AcDbEntity
  8
sotto
  6
ByLayer
 62
  256
370
   -1
100
AcDbLine
 10
0
 20
40
 11
40
 21
40
  0
ARC
  5
55
100
AcDbEntity
  8
sotto
  6
ByLayer
 62
  256
370
   -1
100
AcDbCircle
 10
43
 20
66.99999865130084
 40
3
100
AcDbArc
 50
179.9999871208717
 51
180
  0
LINE
  5
56
100
AcDbEntity
  8
sotto
  6
ByLayer
 62
  256
370
   -1
100
AcDbLine
 10
0
 20
67
 11
0
 21
40
  0
ARC
  5
57
100
AcDbEntity
  8
sotto
  6
ByLayer
 62
  256
370
   -1
100
AcDbCircle
 10
3
 20
67
 40
3
100
AcDbArc
 50
90
 51
180
  0
LINE
  5
58
100
AcDbEntity
  8
sotto
  6
ByLayer
 62
  256
370
   -1
100
AcDbLine
 10
40
 20
40
 11
40
 21
67
  0
ARC
  5
59
100
AcDbEntity
  8
sotto
  6
ByLayer
 62
  256
370
   -1
100
AcDbCircle
 10
37
 20
67
 40
3
100
AcDbArc
 50
0
 51
90
  0
CIRCLE
  5
5A
100
AcDbEntity
  8
sotto
  6
ByLayer
 62
  256
370
   -1
100
AcDbCircle
 10
5
 20
45
 40
2
  0
CIRCLE
  5
5B
100
AcDbEntity
  8
sotto
  6
ByLayer
 62
  256
370
   -1
100
AcDbCircle
 10
35
 20
45
 40
2
  0
CIRCLE
  5
5C
100
AcDbEntity
  8
sopra
  6
ByLayer
 62
  256
370
   -1
100
AcDbCircle
 10
5
 20
45
 40
2
  0
CIRCLE
  5
5D
100
AcDbEntity
  8
sopra
  6
ByLayer
 62
  256
370
   -1
100
AcDbCircle
 10
35
 20
45
 40
2
  0
ARC
  5
5E
100
AcDbEntity
  8
sopra
  6
ByLayer
 62
  256
370
   -1
100
AcDbCircle
 10
20
 20
60
 40
6.5
100
AcDbArc
 50
180
 51
0
  0
LINE
  5
5F
100
AcDbEntity
  8
sopra
  6
ByLayer
 62
  256
370
   -1
100
AcDbLine
 10
13.5
 20
60
 11
13.5
 21
67
  0
LINE
  5
60
100
AcDbEntity
  8
sopra
  6
ByLayer
 62
  256
370
   -1
100
AcDbLine
 10
13.5
 20
60
 11
13.5
 21
67
  0
LINE
  5
61
100
AcDbEntity
  8
sopra
  6
ByLayer
 62
  256
370
   -1
100
AcDbLine
 10
26.5
 20
60
 11
26.5
 21
67
  0
ARC
  5
62
100
AcDbEntity
  8
sopra
  6
ByLayer
 62
  256
370
   -1
100
AcDbCircle
 10
29.5
 20
67
 40
3
100
AcDbArc
 50
90
 51
180
  0
LINE
  5
63
100
AcDbEntity
  8
sopra
  6
ByLayer
 62
  256
370
   -1
100
AcDbLine
 10
13.5
 20
60
 11
13.5
 21
67
  0
ARC
  5
64
100
AcDbEntity
  8
sopra
  6
ByLayer
 62
  256
370
   -1
100
AcDbCircle
 10
10.5
 20
67
 40
3
100
AcDbArc
 50
0
 51
90
  0
ARC
  5
65
100
AcDbEntity
  8
sopra
  6
ByLayer
 62
  256
370
   -1
100
AcDbCircle
 10
-12
 20
67
 40
3
100
AcDbArc
 50
90
 51
180
  0
ARC
  5
66
100
AcDbEntity
  8
sopra
  6
ByLayer
 62
  256
370
   -1
100
AcDbCircle
 10
52
 20
67
 40
3
100
AcDbArc
 50
0
 51
90
  0
LINE
  5
67
100
AcDbEntity
  8
sopra
  6
ByLayer
 62
  256
370
   -1
100
AcDbLine
 10
-12
 20
70
 11
11
 21
70
  0
LINE
  5
68
100
AcDbEntity
  8
sopra
  6
ByLayer
 62
  256
370
   -1
100
AcDbLine
 10
29.5
 20
70
 11
52
 21
70
  0
LINE
  5
69
100
AcDbEntity
  8
sopra
  6
ByLayer
 62
  256
370
   -1
100
AcDbLine
 10
-15
 20
67
 11
-15
 21
60
  0
LINE
  5
6A
100
AcDbEntity
  8
sopra
  6
ByLayer
 62
  256
370
   -1
100
AcDbLine
 10
-15
 20
60
 11
-5
 21
40
  0
LINE
  5
6B
100
AcDbEntity
  8
sopra
  6
ByLayer
 62
  256
370
   -1
100
AcDbLine
 10
55
 20
60
 11
55
 21
67
  0
LINE
  5
6C
100
AcDbEntity
  8
sopra
  6
ByLayer
 62
  256
370
   -1
100
AcDbLine
 10
-5
 20
40
 11
45
 21
40
  0
LINE
  5
6D
100
AcDbEntity
  8
sopra
  6
ByLayer
 62
  256
370
   -1
100
AcDbLine
 10
55
 20
60
 11
45
 21
40
  0
ARC
  5
6E
100
AcDbEntity
  8
sotto
  6
ByLayer
 62
  256
370
   -1
100
AcDbCircle
 10
20
 20
60
 40
6.5
100
AcDbArc
 50
180
 51
0
  0
LINE
  5
6F
100
AcDbEntity
  8
sotto
  6
ByLayer
 62
  256
370
   -1
100
AcDbLine
 10
13.5
 20
60
 11
13.5
 21
67
  0
LINE
  5
70
100
AcDbEntity
  8
sotto
  6
ByLayer
 62
  256
370
   -1
100
AcDbLine
 10
13.5
 20
60
 11
13.5
 21
67
  0
LINE
  5
71
100
AcDbEntity
  8
sotto
  6
ByLayer
 62
  256
370
   -1
100
AcDbLine
 10
26.5
 20
60
 11
26.5
 21
67
  0
ARC
  5
72
100
AcDbEntity
  8
sotto
  6
ByLayer
 62
  256
370
   -1
100
AcDbCircle
 10
29.5
 20
67
 40
3
100
AcDbArc
 50
90
 51
180
  0
LINE
  5
73
100
AcDbEntity
  8
sotto
  6
ByLayer
 62
  256
370
   -1
100
AcDbLine
 10
13.5
 20
60
 11
13.5
 21
67
  0
ARC
  5
74
100
AcDbEntity
  8
sotto
  6
ByLayer
 62
  256
370
   -1
100
AcDbCircle
 10
10.5
 20
67
 40
3
100
AcDbArc
 50
0
 51
90
  0
LINE
  5
75
100
AcDbEntity
  8
sopra
  6
ByLayer
 62
  256
370
   -1
100
AcDbLine
 10
3
 20
70
 11
10.5
 21
70
  0
LINE
  5
76
100
AcDbEntity
  8
sotto
  6
ByLayer
 62
  256
370
   -1
100
AcDbLine
 10
3
 20
70
 11
10.5
 21
70
  0
LINE
  5
77
100
AcDbEntity
  8
sotto
  6
ByLayer
 62
  256
370
   -1
100
AcDbLine
 10
29.5
 20
70
 11
37
 21
70
  0
LINE
  5
78
100
AcDbEntity
  8
pistaCaricatore
  6
ByLayer
 62
  256
370
   -1
100
AcDbLine
 10
26.5
 20
70
 11
26.5
 21
153.5
  0
ARC
  5
79
100
AcDbEntity
  8
pistaCaricatore
  6
ByLayer
 62
  256
370
   -1
100
AcDbCircle
 10
20
 20
160
 40
6.50000000000028
100
AcDbArc
 50
90
 51
179.9999831872267
  0
LINE
  5
7A
100
AcDbEntity
  8
pistaCaricatore
  6
ByLayer
 62
  256
370
   -1
100
AcDbLine
 10
13.5
 20
70
 11
13.50000000000001
 21
159.9999980926514
  0
LINE
  5
7B
100
AcDbEntity
  8
pistaCaricatore
  6
ByLayer
 62
  256
370
   -1
100
AcDbLine
 10
-33.5
 20
83
 11
-18.5
 21
83
  0
LINE
  5
7C
100
AcDbEntity
  8
pistaCaricatore
  6
ByLayer
 62
  256
370
   -1
100
AcDbLine
 10
-33.5
 20
77
 11
-18.5
 21
77
  0
ARC
  5
7D
100
AcDbEntity
  8
pistaCaricatore
  6
ByLayer
 62
  256
370
   -1
100
AcDbCircle
 10
-33.5
 20
80
 40
3
100
AcDbArc
 50
90
 51
270
  0
ARC
  5
7E
100
AcDbEntity
  8
pistaCaricatore
  6
ByLayer
 62
  256
370
   -1
100
AcDbCircle
 10
-18.5
 20
80
 40
3.000000000000005
100
AcDbArc
 50
270.0000032197821
 51
89.99999544654055
  0
LINE
  5
7F
100
AcDbEntity
  8
pistaCaricatore
  6
ByLayer
 62
  256
370
   -1
100
AcDbLine
 10
56.50000000000001
 20
83
 11
71.50000000000001
 21
83
  0
LINE
  5
80
100
AcDbEntity
  8
pistaCaricatore
  6
ByLayer
 62
  256
370
   -1
100
AcDbLine
 10
56.50000000000001
 20
77
 11
71.50000000000001
 21
77
  0
ARC
  5
81
100
AcDbEntity
  8
pistaCaricatore
  6
ByLayer
 62
  256
370
   -1
100
AcDbCircle
 10
56.50000000000001
 20
80
 40
3
100
AcDbArc
 50
90
 51
270
  0
ARC
  5
82
100
AcDbEntity
  8
pistaCaricatore
  6
ByLayer
 62
  256
370
   -1
100
AcDbCircle
 10
71.50000000000001
 20
80
 40
3.000000000000005
100
AcDbArc
 50
270.0000032197821
 51
89.99999544654055
  0
LINE
  5
83
100
AcDbEntity
  8
pistaCaricatore
  6
ByLayer
 62
  256
370
   -1
100
AcDbLine
 10
-43.5
 20
306.5
 11
-43.5
 21
70
  0
ARC
  5
84
100
AcDbEntity
  8
CorpoCaricatore
  6
ByLayer
 62
  256
370
   -1
100
AcDbCircle
 10
71.50000000000001
 20
80
 40
3.000000000000005
100
AcDbArc
 50
270.0000032197819
 51
89.99999544654055
  0
ARC
  5
85
100
AcDbEntity
  8
CorpoCaricatore
  6
ByLayer
 62
  256
370
   -1
100
AcDbCircle
 10
56.50000000000001
 20
80
 40
3.000000000000606
100
AcDbArc
 50
90.00003642767503
 51
269.9999484834886
  0
ARC
  5
86
100
AcDbEntity
  8
CorpoCaricatore
  6
ByLayer
 62
  256
370
   -1
100
AcDbCircle
 10
-18.5
 20
80
 40
3.000000000000005
100
AcDbArc
 50
270.0000032197821
 51
89.99999544654055
  0
ARC
  5
87
100
AcDbEntity
  8
CorpoCaricatore
  6
ByLayer
 62
  256
370
   -1
100
AcDbCircle
 10
-33.5
 20
80
 40
3.000000000000151
100
AcDbArc
 50
90.00001821383698
 51
270.0000203636898
  0
LINE
  5
88
100
AcDbEntity
  8
CorpoCaricatore
  6
ByLayer
 62
  256
370
   -1
100
AcDbLine
 10
-33.50000095367427
 20
83
 11
-18.49999976158142
 21
83
  0
LINE
  5
89
100
AcDbEntity
  8
CorpoCaricatore
  6
ByLayer
 62
  256
370
   -1
100
AcDbLine
 10
-18.49999983141261
 20
77
 11
-33.5
 21
77
  0
LINE
  5
8A
100
AcDbEntity
  8
CorpoCaricatore
  6
ByLayer
 62
  256
370
   -1
100
AcDbLine
 10
71.50000023841859
 20
83
 11
56.50000190734865
 21
83
  0
LINE
  5
8B
100
AcDbEntity
  8
CorpoCaricatore
  6
ByLayer
 62
  256
370
   -1
100
AcDbLine
 10
56.50000269739829
 20
77
 11
71.50000016858741
 21
77
  0
ARC
  5
8C
100
AcDbEntity
  8
pistaCaricatore
  6
ByLayer
 62
  256
370
   -1
100
AcDbCircle
 10
70
 20
160
 40
6.503895639359459
100
AcDbArc
 50
269.9344142004499
 51
1.786634510299454
  0
LINE
  5
8D
100
AcDbEntity
  8
pistaCaricatore
  6
ByLayer
 62
  256
370
   -1
100
AcDbLine
 10
63.5
 20
166.5
 11
20.00000269739833
 21
166.5
  0
LINE
  5
8E
100
AcDbEntity
  8
pistaCaricatore
  6
ByLayer
 62
  256
370
   -1
100
AcDbLine
 10
26.50000000000001
 20
153.5
 11
70.22507440476085
 21
153.5
  0
LINE
  5
8F
100
AcDbEntity
  8
CorpoCaricatore
  6
ByLayer
 62
  256
370
   -1
100
AcDbLine
 10
-43.5
 20
306.5
 11
-43.5
 21
70
  0
LINE
  5
90
100
AcDbEntity
  8
CorpoCaricatore
  6
ByLayer
 62
  256
370
   -1
100
AcDbLine
 10
9.999999999999636
 20
306.5
 11
9.999999999999636
 21
70
  0
LINE
  5
91
100
AcDbEntity
  8
CorpoCaricatore
  6
ByLayer
 62
  256
370
   -1
100
AcDbLine
 10
29.99999999999964
 20
306.5
 11
29.99999999999964
 21
170
  0
LINE
  5
92
100
AcDbEntity
  8
CorpoCaricatore
  6
ByLayer
 62
  256
370
   -1
100
AcDbLine
 10
80.00000000000072
 20
170
 11
80.00000000000072
 21
306.5
  0
CIRCLE
  5
93
100
AcDbEntity
  8
CorpoCaricatore
  6
ByLayer
 62
  256
370
   -1
100
AcDbCircle
 10
45
 20
180
 40
2
  0
CIRCLE
  5
94
100
AcDbEntity
  8
CorpoCaricatore
  6
ByLayer
 62
  256
370
   -1
100
AcDbCircle
 10
89
 20
180
 40
2
  0
CIRCLE
  5
95
100
AcDbEntity
  8
CorpoCaricatore
  6
ByLayer
 62
  256
370
   -1
100
AcDbCircle
 10
45
 20
300
 40
2
  0
CIRCLE
  5
96
100
AcDbEntity
  8
CorpoCaricatore
  6
ByLayer
 62
  256
370
   -1
100
AcDbCircle
 10
89
 20
300
 40
2
  0
CIRCLE
  5
97
100
AcDbEntity
  8
CorpoCaricatore
  6
ByLayer
 62
  256
370
   -1
100
AcDbCircle
 10
45
 20
240
 40
2
  0
CIRCLE
  5
98
100
AcDbEntity
  8
CorpoCaricatore
  6
ByLayer
 62
  256
370
   -1
100
AcDbCircle
 10
-10
 20
240
 40
2
  0
CIRCLE
  5
99
100
AcDbEntity
  8
CorpoCaricatore
  6
ByLayer
 62
  256
370
   -1
100
AcDbCircle
 10
-10
 20
300
 40
2
  0
CIRCLE
  5
9A
100
AcDbEntity
  8
CorpoCaricatore
  6
ByLayer
 62
  256
370
   -1
100
AcDbCircle
 10
-10
 20
180
 40
2
  0
CIRCLE
  5
9B
100
AcDbEntity
  8
CorpoCaricatore
  6
ByLayer
 62
  256
370
   -1
100
AcDbCircle
 10
50
 20
130
 40
2
  0
CIRCLE
  5
9C
100
AcDbEntity
  8
pistaCaricatore
  6
ByLayer
 62
  256
370
   -1
100
AcDbCircle
 10
-10
 20
300
 40
2
  0
CIRCLE
  5
9D
100
AcDbEntity
  8
pistaCaricatore
  6
ByLayer
 62
  256
370
   -1
100
AcDbCircle
 10
45
 20
300
 40
2
  0
CIRCLE
  5
9E
100
AcDbEntity
  8
pistaCaricatore
  6
ByLayer
 62
  256
370
   -1
100
AcDbCircle
 10
89
 20
300
 40
2
  0
CIRCLE
  5
9F
100
AcDbEntity
  8
pistaCaricatore
  6
ByLayer
 62
  256
370
   -1
100
AcDbCircle
 10
-10
 20
240
 40
2
  0
CIRCLE
  5
A0
100
AcDbEntity
  8
pistaCaricatore
  6
ByLayer
 62
  256
370
   -1
100
AcDbCircle
 10
45
 20
240
 40
2
  0
CIRCLE
  5
A1
100
AcDbEntity
  8
pistaCaricatore
  6
ByLayer
 62
  256
370
   -1
100
AcDbCircle
 10
-10
 20
180
 40
2
  0
CIRCLE
  5
A2
100
AcDbEntity
  8
pistaCaricatore
  6
ByLayer
 62
  256
370
   -1
100
AcDbCircle
 10
45
 20
180
 40
2
  0
CIRCLE
  5
A3
100
AcDbEntity
  8
pistaCaricatore
  6
ByLayer
 62
  256
370
   -1
100
AcDbCircle
 10
89
 20
180
 40
2
  0
CIRCLE
  5
A4
100
AcDbEntity
  8
pistaCaricatore
  6
ByLayer
 62
  256
370
   -1
100
AcDbCircle
 10
50
 20
130
 40
2
  0
LINE
  5
A5
100
AcDbEntity
  8
pistaCaricatore
  6
ByLayer
 62
  256
370
   -1
100
AcDbLine
 10
111.5
 20
70
 11
111.5
 21
220
  0
LINE
  5
A6
100
AcDbEntity
  8
pistaCaricatore
  6
ByLayer
 62
  256
370
   -1
100
AcDbLine
 10
111.5
 20
70
 11
111.5
 21
306.5
  0
LINE
  5
A7
100
AcDbEntity
  8
CorpoCaricatore
  6
ByLayer
 62
  256
370
   -1
100
AcDbLine
 10
80.00000000000072
 20
170
 11
111.5
 21
170
  0
LINE
  5
A8
100
AcDbEntity
  8
pistaCaricatore
  6
ByLayer
 62
  256
370
   -1
100
AcDbLine
 10
111.5
 20
306.5
 11
-43.5
 21
306.5
  0
ARC
  5
A9
100
AcDbEntity
  8
pistaCaricatore
  6
ByLayer
 62
  256
370
   -1
100
AcDbCircle
 10
70
 20
290
 40
6.504009103023518
100
AcDbArc
 50
357.98816212798
 51
176.8918248156363
  0
LINE
  5
AA
100
AcDbEntity
  8
pistaCaricatore
  6
ByLayer
 62
  256
370
   -1
100
AcDbLine
 10
76.5
 20
159.7749255952392
 11
76.49999999999999
 21
289.7716703869505
  0
LINE
  5
AB
100
AcDbEntity
  8
pistaCaricatore
  6
ByLayer
 62
  256
370
   -1
100
AcDbLine
 10
63.5
 20
166.5
 11
63.5
 21
289.7716703869824
  0
LINE
  5
AC
100
AcDbEntity
  8
pistaCaricatore
  6
ByLayer
 62
  256
370
   -1
100
AcDbLine
 10
-43.5
 20
70
 11
13.5
 21
70
  0
LINE
  5
AD
100
AcDbEntity
  8
pistaCaricatore
  6
ByLayer
 62
  256
370
   -1
100
AcDbLine
 10
26.5
 20
70
 11
111.5
 21
70
  0
CIRCLE
  5
AE
100
AcDbEntity
  8
pistaCaricatore
  6
ByLayer
 62
  256
370
   -1
100
AcDbCircle
 10
-10
 20
110
 40
2
  0
CIRCLE
  5
AF
100
AcDbEntity
  8
pistaCaricatore
  6
ByLayer
 62
  256
370
   -1
100
AcDbCircle
 10
80
 20
110
 40
2
  0
CIRCLE
  5
B0
100
AcDbEntity
  8
CorpoCaricatore
  6
ByLayer
 62
  256
370
   -1
100
AcDbCircle
 10
-10
 20
110
 40
2
  0
CIRCLE
  5
B1
100
AcDbEntity
  8
CorpoCaricatore
  6
ByLayer
 62
  256
370
   -1
100
AcDbCircle
 10
80
 20
110
 40
2
  0
CIRCLE
  5
B2
100
AcDbEntity
  8
PonteRinforzo
  6
ByLayer
 62
  256
370
   -1
100
AcDbCircle
 10
-10
 20
110
 40
2
  0
CIRCLE
  5
B3
100
AcDbEntity
  8
PonteRinforzo
  6
ByLayer
 62
  256
370
   -1
100
AcDbCircle
 10
80
 20
110
 40
2
  0
LINE
  5
B4
100
AcDbEntity
  8
PonteRinforzo
  6
ByLayer
 62
  256
370
   -1
100
AcDbLine
 10
-42
 20
120
 11
-44
 21
120
  0
LINE
  5
B5
100
AcDbEntity
  8
PonteRinforzo
  6
ByLayer
 62
  256
370
   -1
100
AcDbLine
 10
-10
 20
120
 11
0
 21
120
  0
LINE
  5
B6
100
AcDbEntity
  8
PonteRinforzo
  6
ByLayer
 62
  256
370
   -1
100
AcDbLine
 10
60
 20
120
 11
70
 21
120
  0
ARC
  5
B7
100
AcDbEntity
  8
PonteRinforzo
  6
ByLayer
 62
  256
370
   -1
100
AcDbCircle
 10
20
 20
120
 40
10.0021699034644
100
AcDbArc
 50
0.1403907490883164
 51
180.2172209012276
  0
LINE
  5
B8
100
AcDbEntity
  8
PonteRinforzo
  6
ByLayer
 62
  256
370
   -1
100
AcDbLine
 10
110
 20
120
 11
111.5
 21
120
  0
LINE
  5
B9
100
AcDbEntity
  8
PonteRinforzo
  6
ByLayer
 62
  256
370
   -1
100
AcDbLine
 10
-43.5
 20
134.7995721726223
 11
-43.5
 21
99.98139880952613
  0
ARC
  5
BA
100
AcDbEntity
  8
PonteRinforzo
  6
ByLayer
 62
  256
370
   -1
100
AcDbCircle
 10
-38.5
 20
134.7995721726223
 40
5
100
AcDbArc
 50
89.99999999999983
 51
180
  0
LINE
  5
BB
100
AcDbEntity
  8
PonteRinforzo
  6
ByLayer
 62
  256
370
   -1
100
AcDbLine
 10
111.5
 20
99.69075520833564
 11
111.5
 21
134.7995721726223
  0
ARC
  5
BC
100
AcDbEntity
  8
PonteRinforzo
  6
ByLayer
 62
  256
370
   -1
100
AcDbCircle
 10
106.5
 20
134.7995721726223
 40
5
100
AcDbArc
 50
0
 51
90
  0
LINE
  5
BD
100
AcDbEntity
  8
PonteRinforzo
  6
ByLayer
 62
  256
370
   -1
100
AcDbLine
 10
30
 20
120
 11
29.99999999999973
 21
105.0000000000001
  0
LINE
  5
BE
100
AcDbEntity
  8
PonteRinforzo
  6
ByLayer
 62
  256
370
   -1
100
AcDbLine
 10
34.99999999999974
 20
100
 11
112
 21
100
  0
ARC
  5
BF
100
AcDbEntity
  8
PonteRinforzo
  6
ByLayer
 62
  256
370
   -1
100
AcDbCircle
 10
34.99999999999974
 20
105
 40
5
100
AcDbArc
 50
179.999999999999
 51
270
  0
LINE
  5
C0
100
AcDbEntity
  8
PonteRinforzo
  6
ByLayer
 62
  256
370
   -1
100
AcDbLine
 10
9.997901978786704
 20
119.9620796649535
 11
9.999476575226202
 21
104.8909876503947
  0
LINE
  5
C1
100
AcDbEntity
  8
PonteRinforzo
  6
ByLayer
 62
  256
370
   -1
100
AcDbLine
 10
4.990101018959498
 20
99.89047405093096
 11
-43.5
 21
99.98139880952613
  0
ARC
  5
C2
100
AcDbEntity
  8
PonteRinforzo
  6
ByLayer
 62
  256
370
   -1
100
AcDbCircle
 10
4.999476602515294
 20
104.8904652607665
 40
5
100
AcDbArc
 50
269.8925636633973
 51
0.005986144202690596
  0
LINE
  5
C3
100
AcDbEntity
  8
PonteRinforzo
  6
ByLayer
 62
  256
370
   -1
100
AcDbLine
 10
106.5
 20
139.7995721726223
 11
-38.49999730260173
 21
139.7995721726223
  0
LINE
  5
C4
100
AcDbEntity
  8
CorpoCaricatore
  6
ByLayer
 62
  256
370
   -1
100
AcDbLine
 10
29.99999999999964
 20
147
 11
29.99999999999964
 21
70
  0
ARC
  5
C5
100
AcDbEntity
  8
CorpoCaricatore
  6
ByLayer
 62
  256
370
   -1
100
AcDbCircle
 10
32.99999999999964
 20
147
 40
3
100
AcDbArc
 50
89.99999999999987
 51
180
  0
LINE
  5
C6
100
AcDbEntity
  8
CorpoCaricatore
  6
ByLayer
 62
  256
370
   -1
100
AcDbLine
 10
60.00000000000072
 20
173
 11
60.00000000000072
 21
306.5
  0
LINE
  5
C7
100
AcDbEntity
  8
CorpoCaricatore
  6
ByLayer
 62
  256
370
   -1
100
AcDbLine
 10
57.00000000000072
 20
170
 11
30
 21
170
  0
ARC
  5
C8
100
AcDbEntity
  8
CorpoCaricatore
  6
ByLayer
 62
  256
370
   -1
100
AcDbCircle
 10
57.00000000000072
 20
173
 40
3
100
AcDbArc
 50
270
 51
0
  0
LINE
  5
C9
100
AcDbEntity
  8
topCaricatore2
  6
ByLayer
 62
  256
370
   -1
100
AcDbLine
 10
26.5
 20
70
 11
26.5
 21
153.5
  0
ARC
  5
CA
100
AcDbEntity
  8
topCaricatore2
  6
ByLayer
 62
  256
370
   -1
100
AcDbCircle
 10
20
 20
160
 40
6.50000000000028
100
AcDbArc
 50
90
 51
179.9999831872267
  0
LINE
  5
CB
100
AcDbEntity
  8
topCaricatore2
  6
ByLayer
 62
  256
370
   -1
100
AcDbLine
 10
13.5
 20
70
 11
13.5
 21
159.9999980926514
  0
LINE
  5
CC
100
AcDbEntity
  8
topCaricatore2
  6
ByLayer
 62
  256
370
   -1
100
AcDbLine
 10
-33.5
 20
83
 11
-18.5
 21
83
  0
LINE
  5
CD
100
AcDbEntity
  8
topCaricatore2
  6
ByLayer
 62
  256
370
   -1
100
AcDbLine
 10
-33.5
 20
77
 11
-18.5
 21
77
  0
ARC
  5
CE
100
AcDbEntity
  8
topCaricatore2
  6
ByLayer
 62
  256
370
   -1
100
AcDbCircle
 10
-33.5
 20
80
 40
3
100
AcDbArc
 50
90
 51
270
  0
ARC
  5
CF
100
AcDbEntity
  8
topCaricatore2
  6
ByLayer
 62
  256
370
   -1
100
AcDbCircle
 10
-18.5
 20
80
 40
3.000000000000005
100
AcDbArc
 50
270.0000032197821
 51
89.99999544654055
  0
LINE
  5
D0
100
AcDbEntity
  8
topCaricatore2
  6
ByLayer
 62
  256
370
   -1
100
AcDbLine
 10
56.5
 20
83
 11
71.5
 21
83
  0
LINE
  5
D1
100
AcDbEntity
  8
topCaricatore2
  6
ByLayer
 62
  256
370
   -1
100
AcDbLine
 10
56.5
 20
77
 11
71.5
 21
77
  0
ARC
  5
D2
100
AcDbEntity
  8
topCaricatore2
  6
ByLayer
 62
  256
370
   -1
100
AcDbCircle
 10
56.5
 20
80
 40
3
100
AcDbArc
 50
90
 51
270
  0
ARC
  5
D3
100
AcDbEntity
  8
topCaricatore2
  6
ByLayer
 62
  256
370
   -1
100
AcDbCircle
 10
71.5
 20
80
 40
3.000000000000005
100
AcDbArc
 50
270.0000032197821
 51
89.99999544654055
  0
LINE
  5
D4
100
AcDbEntity
  8
topCaricatore2
  6
ByLayer
 62
  256
370
   -1
100
AcDbLine
 10
-43.5
 20
306.5
 11
-43.5
 21
70
  0
ARC
  5
D5
100
AcDbEntity
  8
topCaricatore2
  6
ByLayer
 62
  256
370
   -1
100
AcDbCircle
 10
70
 20
160
 40
6.503895639359459
100
AcDbArc
 50
269.9344142004499
 51
1.786634510299454
  0
LINE
  5
D6
100
AcDbEntity
  8
topCaricatore2
  6
ByLayer
 62
  256
370
   -1
100
AcDbLine
 10
63.5
 20
166.5
 11
20.00000269739832
 21
166.5
  0
LINE
  5
D7
100
AcDbEntity
  8
topCaricatore2
  6
ByLayer
 62
  256
370
   -1
100
AcDbLine
 10
26.5
 20
153.5
 11
70.22507440476085
 21
153.5
  0
CIRCLE
  5
D8
100
AcDbEntity
  8
topCaricatore2
  6
ByLayer
 62
  256
370
   -1
100
AcDbCircle
 10
-10
 20
300
 40
2
  0
CIRCLE
  5
D9
100
AcDbEntity
  8
topCaricatore2
  6
ByLayer
 62
  256
370
   -1
100
AcDbCircle
 10
45
 20
300
 40
2
  0
CIRCLE
  5
DA
100
AcDbEntity
  8
topCaricatore2
  6
ByLayer
 62
  256
370
   -1
100
AcDbCircle
 10
89
 20
300
 40
2
  0
CIRCLE
  5
DB
100
AcDbEntity
  8
topCaricatore2
  6
ByLayer
 62
  256
370
   -1
100
AcDbCircle
 10
-10
 20
240
 40
2
  0
CIRCLE
  5
DC
100
AcDbEntity
  8
topCaricatore2
  6
ByLayer
 62
  256
370
   -1
100
AcDbCircle
 10
45
 20
240
 40
2
  0
CIRCLE
  5
DD
100
AcDbEntity
  8
topCaricatore2
  6
ByLayer
 62
  256
370
   -1
100
AcDbCircle
 10
-10
 20
180
 40
2
  0
CIRCLE
  5
DE
100
AcDbEntity
  8
topCaricatore2
  6
ByLayer
 62
  256
370
   -1
100
AcDbCircle
 10
45
 20
180
 40
2
  0
CIRCLE
  5
DF
100
AcDbEntity
  8
topCaricatore2
  6
ByLayer
 62
  256
370
   -1
100
AcDbCircle
 10
89
 20
180
 40
2
  0
CIRCLE
  5
E0
100
AcDbEntity
  8
topCaricatore2
  6
ByLayer
 62
  256
370
   -1
100
AcDbCircle
 10
50
 20
130
 40
2
  0
LINE
  5
E1
100
AcDbEntity
  8
topCaricatore2
  6
ByLayer
 62
  256
370
   -1
100
AcDbLine
 10
111.5
 20
70
 11
111.5
 21
220
  0
LINE
  5
E2
100
AcDbEntity
  8
topCaricatore2
  6
ByLayer
 62
  256
370
   -1
100
AcDbLine
 10
111.5
 20
70
 11
111.5
 21
306.5
  0
LINE
  5
E3
100
AcDbEntity
  8
topCaricatore2
  6
ByLayer
 62
  256
370
   -1
100
AcDbLine
 10
111.5
 20
306.5
 11
-43.5
 21
306.5
  0
LINE
  5
E4
100
AcDbEntity
  8
topCaricatore2
  6
ByLayer
 62
  256
370
   -1
100
AcDbLine
 10
-43.5
 20
70
 11
13.5
 21
70
  0
LINE
  5
E5
100
AcDbEntity
  8
topCaricatore2
  6
ByLayer
 62
  256
370
   -1
100
AcDbLine
 10
26.5
 20
70
 11
111.5
 21
70
  0
CIRCLE
  5
E6
100
AcDbEntity
  8
topCaricatore2
  6
ByLayer
 62
  256
370
   -1
100
AcDbCircle
 10
-10
 20
110
 40
2
  0
CIRCLE
  5
E7
100
AcDbEntity
  8
topCaricatore2
  6
ByLayer
 62
  256
370
   -1
100
AcDbCircle
 10
80
 20
110
 40
2
  0
ARC
  5
E8
100
AcDbEntity
  8
topCaricatore2
  6
ByLayer
 62
  256
370
   -1
100
AcDbCircle
 10
70
 20
290
 40
11.83664655068264
100
AcDbArc
 50
303.3081718671852
 51
235.7007870967321
  0
LINE
  5
E9
100
AcDbEntity
  8
topCaricatore2
  6
ByLayer
 62
  256
370
   -1
100
AcDbLine
 10
63.5
 20
166.5
 11
63.5
 21
280.1077706473316
  0
LINE
  5
EA
100
AcDbEntity
  8
topCaricatore2
  6
ByLayer
 62
  256
370
   -1
100
AcDbLine
 10
76.5
 20
159.7749255952392
 11
76.49999999999999
 21
280.1077706473316
  0
LWPOLYLINE
  5
EB
100
AcDbEntity
  8
CorpoCaricatore
  6
ByLayer
 62
  256
370
   -1
100
AcDbPolyline
 90
    4
 70
    1
 43
0
 10
-50
 20
70
 10
-70
 20
70
 10
-70
 20
350
 10
-50
 20
350
  0
LWPOLYLINE
  5
EC
100
AcDbEntity
  8
CorpoCaricatore
  6
ByLayer
 62
  256
370
   -1
100
AcDbPolyline
 90
    4
 70
    1
 43
0
 10
10
 20
60
 10
160
 20
60
 10
160
 20
40
 10
10
 20
40
  0
CIRCLE
  5
ED
100
AcDbEntity
  8
CorpoCaricatore
  6
ByLayer
 62
  256
370
   -1
100
AcDbCircle
 10
140
 20
50
 40
3
  0
CIRCLE
  5
EE
100
AcDbEntity
  8
CorpoCaricatore
  6
ByLayer
 62
  256
370
   -1
100
AcDbCircle
 10
-60
 20
330
 40
3
  0
LINE
  5
EF
100
AcDbEntity
  8
CorpoCaricatore
  6
ByLayer
 62
  256
370
   -1
100
AcDbLine
 10
160
 20
200
 11
120
 21
220
  0
LINE
  5
F0
100
AcDbEntity
  8
CorpoCaricatore
  6
ByLayer
 62
  256
370
   -1
100
AcDbLine
 10
120.8944271909999
 20
100.4472135955
 11
120
 21
70
  0
LINE
  5
F1
100
AcDbEntity
  8
CorpoCaricatore
  6
ByLayer
 62
  256
370
   -1
100
AcDbLine
 10
120
 20
220
 11
120
 21
306.5
  0
LINE
  5
F2
100
AcDbEntity
  8
CorpoCaricatore
  6
ByLayer
 62
  256
370
   -1
100
AcDbLine
 10
160
 20
180
 11
120
 21
180
  0
LINE
  5
F3
100
AcDbEntity
  8
CorpoCaricatore
  6
ByLayer
 62
  256
370
   -1
100
AcDbLine
 10
120
 20
180
 11
111.5
 21
170
  0
LINE
  5
F4
100
AcDbEntity
  8
CorpoCaricatore
  6
ByLayer
 62
  256
370
   -1
100
AcDbLine
 10
110
 20
150
 11
120
 21
140
  0
LINE
  5
F5
100
AcDbEntity
  8
CorpoCaricatore
  6
ByLayer
 62
  256
370
   -1
100
AcDbLine
 10
120
 20
140
 11
160
 21
140
  0
LINE
  5
F6
100
AcDbEntity
  8
CorpoCaricatore
  6
ByLayer
 62
  256
370
   -1
100
AcDbLine
 10
160
 20
120
 11
160
 21
140
  0
LINE
  5
F7
100
AcDbEntity
  8
CorpoCaricatore
  6
ByLayer
 62
  256
370
   -1
100
AcDbLine
 10
160
 20
200
 11
160
 21
180
  0
LINE
  5
F8
100
AcDbEntity
  8
CorpoCaricatore
  6
ByLayer
 62
  256
370
   -1
100
AcDbLine
 10
-43.5
 20
306.5
 11
-20
 21
360
  0
LINE
  5
F9
100
AcDbEntity
  8
CorpoCaricatore
  6
ByLayer
 62
  256
370
   -1
100
AcDbLine
 10
0
 20
360
 11
0
 21
320
  0
LINE
  5
FA
100
AcDbEntity
  8
CorpoCaricatore
  6
ByLayer
 62
  256
370
   -1
100
AcDbLine
 10
0
 20
320
 11
9.999999999999636
 21
306.5
  0
LINE
  5
FB
100
AcDbEntity
  8
CorpoCaricatore
  6
ByLayer
 62
  256
370
   -1
100
AcDbLine
 10
-20
 20
360
 11
0
 21
360
  0
LINE
  5
FC
100
AcDbEntity
  8
CorpoCaricatore
  6
ByLayer
 62
  256
370
   -1
100
AcDbLine
 10
40
 20
360
 11
40
 21
320
  0
LINE
  5
FD
100
AcDbEntity
  8
CorpoCaricatore
  6
ByLayer
 62
  256
370
   -1
100
AcDbLine
 10
40
 20
320
 11
29.99999999999964
 21
306.5
  0
LINE
  5
FE
100
AcDbEntity
  8
CorpoCaricatore
  6
ByLayer
 62
  256
370
   -1
100
AcDbLine
 10
60
 20
360
 11
60.00000000000072
 21
306.5
  0
LINE
  5
FF
100
AcDbEntity
  8
CorpoCaricatore
  6
ByLayer
 62
  256
370
   -1
100
AcDbLine
 10
60
 20
360
 11
40
 21
360
  0
LINE
  5
100
100
AcDbEntity
  8
CorpoCaricatore
  6
ByLayer
 62
  256
370
   -1
100
AcDbLine
 10
80.00000000000072
 20
306.5
 11
120
 21
306.5
  0
LINE
  5
101
100
AcDbEntity
  8
CorpoCaricatore
  6
ByLayer
 62
  256
370
   -1
100
AcDbLine
 10
-43.5
 20
70
 11
10
 21
70
  0
LINE
  5
102
100
AcDbEntity
  8
CorpoCaricatore
  6
ByLayer
 62
  256
370
   -1
100
AcDbLine
 10
30
 20
70
 11
120
 21
70
  0
LINE
  5
103
100
AcDbEntity
  8
CorpoCaricatore
  6
ByLayer
 62
  256
370
   -1
100
AcDbLine
 10
110
 20
150
 11
32.99999999999964
 21
150
  0
LINE
  5
104
100
AcDbEntity
  8
CorpoCaricatore
  6
ByLayer
 62
  256
370
   -1
100
AcDbLine
 10
120.8944271909999
 20
100.4472135955
 11
160
 21
120
  0
CIRCLE
  5
105
100
AcDbEntity
  8
CorpoCaricatore
  6
ByLayer
 62
  256
370
   -1
100
AcDbCircle
 10
150
 20
240
 40
8
  0
LWPOLYLINE
  5
106
100
AcDbEntity
  8
CorpoCaricatore
  6
ByLayer
 62
  256
370
   -1
100
AcDbPolyline
 90
    4
 70
    1
 43
0
 10
130
 20
260
 10
170
 20
260
 10
170
 20
220
 10
130
 20
220
  0
CIRCLE
  5
107
100
AcDbEntity
  8
CorpoCaricatore
  6
ByLayer
 62
  256
370
   -1
100
AcDbCircle
 10
150
 20
280
 40
8
  0
LWPOLYLINE
  5
108
100
AcDbEntity
  8
CorpoCaricatore
  6
ByLayer
 62
  256
370
   -1
100
AcDbPolyline
 90
    4
 70
    1
 43
0
 10
130
 20
300
 10
170
 20
300
 10
170
 20
260
 10
130
 20
260
  0
CIRCLE
  5
109
100
AcDbEntity
  8
forcella
  6
ByLayer
 62
  256
370
   -1
100
AcDbCircle
 10
20
 20
7
 40
2
  0
CIRCLE
  5
10A
100
AcDbEntity
  8
forcella
  6
ByLayer
 62
  256
370
   -1
100
AcDbCircle
 10
20
 20
27
 40
2
  0
ARC
  5
10B
100
AcDbEntity
  8
forcella
  6
ByLayer
 62
  256
370
   -1
100
AcDbCircle
 10
20
 20
60
 40
10
100
AcDbArc
 50
180
 51
0
  0
ARC
  5
10C
100
AcDbEntity
  8
forcella
  6
ByLayer
 62
  256
370
   -1
100
AcDbCircle
 10
3
 20
67
 40
3
100
AcDbArc
 50
90
 51
180
  0
LINE
  5
10D
100
AcDbEntity
  8
forcella
  6
ByLayer
 62
  256
370
   -1
100
AcDbLine
 10
10
 20
60
 11
10
 21
67
  0
ARC
  5
10E
100
AcDbEntity
  8
forcella
  6
ByLayer
 62
  256
370
   -1
100
AcDbCircle
 10
7
 20
67
 40
3
100
AcDbArc
 50
0
 51
90
  0
LINE
  5
10F
100
AcDbEntity
  8
forcella
  6
ByLayer
 62
  256
370
   -1
100
AcDbLine
 10
30
 20
60
 11
30
 21
67
  0
ARC
  5
110
100
AcDbEntity
  8
forcella
  6
ByLayer
 62
  256
370
   -1
100
AcDbCircle
 10
33
 20
67
 40
3
100
AcDbArc
 50
90
 51
180
  0
ARC
  5
111
100
AcDbEntity
  8
forcella
  6
ByLayer
 62
  256
370
   -1
100
AcDbCircle
 10
37
 20
67
 40
3
100
AcDbArc
 50
0
 51
90
  0
ARC
  5
112
100
AcDbEntity
  8
forcella
  6
ByLayer
 62
  256
370
   -1
100
AcDbCircle
 10
35
 20
5
 40
5
100
AcDbArc
 50
270
 51
0
  0
ARC
  5
113
100
AcDbEntity
  8
forcella
  6
ByLayer
 62
  256
370
   -1
100
AcDbCircle
 10
5
 20
5
 40
5
100
AcDbArc
 50
180
 51
270
  0
LINE
  5
114
100
AcDbEntity
  8
forcella
  6
ByLayer
 62
  256
370
   -1
100
AcDbLine
 10
0
 20
5.000000000000001
 11
0
 21
67
  0
LINE
  5
115
100
AcDbEntity
  8
forcella
  6
ByLayer
 62
  256
370
   -1
100
AcDbLine
 10
3
 20
70
 11
7
 21
70
  0
LINE
  5
116
100
AcDbEntity
  8
forcella
  6
ByLayer
 62
  256
370
   -1
100
AcDbLine
 10
33
 20
70
 11
37
 21
70
  0
LINE
  5
117
100
AcDbEntity
  8
forcella
  6
ByLayer
 62
  256
370
   -1
100
AcDbLine
 10
40
 20
67
 11
40
 21
5
  0
LINE
  5
118
100
AcDbEntity
  8
forcella
  6
ByLayer
 62
  256
370
   -1
100
AcDbLine
 10
35
 20
0
 11
4.999999999999999
 21
0
  0
CIRCLE
  5
119
100
AcDbEntity
  8
forcella
  6
ByLayer
 62
  256
370
   -1
100
AcDbCircle
 10
5
 20
45
 40
2
  0
CIRCLE
  5
11A
100
AcDbEntity
  8
forcella
  6
ByLayer
 62
  256
370
   -1
100
AcDbCircle
 10
35
 20
45
 40
2
  0
LINE
  5
11B
100
AcDbEntity
  8
forcella
  6
ByLayer
 62
  256
370
   -1
100
AcDbLine
 10
40
 20
66.99999865130084
 11
40
 21
5
  0
ENDSEC
  0
SECTION
  2
OBJECTS
  0
DICTIONARY
  5
C
330
0
100
AcDbDictionary
281
    1
  3
ACAD_GROUP
350
D
  0
DICTIONARY
  5
D
330
C
100
AcDbDictionary
281
    1
  0
ENDSEC
  0
EOF
