999
FreeCAD v0.19 24366 (Git)
  0
SECTION
  2
HEADER
  9
$ACADVER
  1
AC1014
  9
$ACADMAINTVER
 70
     9
  9
$DWGCODEPAGE
  3
ANSI_1252
  9
$TEXTSTYLE
  7
STANDARD
  9
$DIMSTYLE
  2
STANDARD
  9
$DIMTXSTY
  7
STANDARD
  9
$CMLSTYLE
  2
STANDARD
  9
$PEXTMAX
 10
50
 20
50
 30
50
  9
$PEXTMIN
 10
0
 20
0
 30
0
  9
$HANDSEED
  5
FFFF
  0
ENDSEC
  0
SECTION
  2
CLASSES
  0
CLASS
  1
ACDBDICTIONARYWDFLT
  2
AcDbDictionaryWithDefault
  3
ObjectDBX Classes
 90
        0
280
     0
281
     0
  0
CLASS
  1
XRECORD
  2
AcDbXrecord
  3
ObjectDBX Classes
 90
        0
280
     0
281
     0
  0
CLASS
  1
LWPOLYLINE
  2
AcDbPolyline
  3
ObjectDBX Classes
 90
        0
280
     0
281
     1
  0
ENDSEC
  0
SECTION
  2
TABLES
  0
TABLE
  2
VPORT
  5
20
330
0
100
AcDbSymbolTable
 70
     1
  0
VPORT
  5
21
330
20
100
AcDbSymbolTableRecord
100
AcDbViewportTableRecord
  2
*ACTIVE
 70
     0
  0
ENDTAB
  0
TABLE
  2
LTYPE
  5
22
330
0
100
AcDbSymbolTable
 70
     1
  0
LTYPE
  5
23
330
21
100
AcDbSymbolTableRecord
100
AcDbLinetypeTableRecord
  2
BYBLOCK
 70
     0
  3

 72
    65
 73
     0
 40
0.0
  0
LTYPE
  5
24
330
21
100
AcDbSymbolTableRecord
100
AcDbLinetypeTableRecord
  2
BYLAYER
 70
     0
  3

 72
    65
 73
     0
 40
0.0
  0
LTYPE
  5
25
330
21
100
AcDbSymbolTableRecord
100
AcDbLinetypeTableRecord
  2
CONTINUOUS
 70
     0
  3
Solid line
 72
    65
 73
     0
 40
0.0
  0
ENDTAB
  0
TABLE
  2
LAYER
  5
C7E
330
0
100
AcDbSymbolTable
 70
3
  0
LAYER
  5
C7F
330
C7E
100
AcDbSymbolTableRecord
100
AcDbLayerTableRecord
  2
0
 70
   0
 62
   7
  6
CONTINUOUS
  0
LAYER
  5
C80
330
C7E
100
AcDbSymbolTableRecord
100
AcDbLayerTableRecord
  2
none
 70
    0
 62
    7
  6
CONTINUOUS
  0
LAYER
  5
C81
330
C7E
100
AcDbSymbolTableRecord
100
AcDbLayerTableRecord
  2
PolarPattern002
 70
    0
 62
    7
  6
CONTINUOUS
  0
ENDTAB
  0
TABLE
  2
STYLE
  5
70
330
0
100
AcDbSymbolTable
 70
     2
  0
STYLE
  5
71
330
70
100
AcDbSymbolTableRecord
100
AcDbTextStyleTableRecord
  2
STANDARD
 70
     0
 40
0.0
 41
1.0
 50
0.0
 71
     0
 42
2.5
  3
arial.ttf
  4

  0
STYLE
  5
72
330
70
100
AcDbSymbolTableRecord
100
AcDbTextStyleTableRecord
  2
ANNOTATIVE
 70
     0
 40
0.0
 41
1.0
 50
0.0
 71
     0
 42
2.5
  3
arial.ttf
  4

  0
ENDTAB
  0
TABLE
  2
VIEW
  5
73
330
0
100
AcDbSymbolTable
 70
     0
  0
ENDTAB
  0
TABLE
  2
UCS
  5
74
330
0
100
AcDbSymbolTable
 70
     0
  0
ENDTAB
  0
TABLE
  2
APPID
  5
75
330
0
100
AcDbSymbolTable
 70
     2
  0
APPID
  5
76
330
75
100
AcDbSymbolTableRecord
100
AcDbRegAppTableRecord
  2
ACAD
 70
     0
  0
APPID
  5
77
330
75
100
AcDbSymbolTableRecord
100
AcDbRegAppTableRecord
  2
ACADANNOTATIVE
 70
     0
  0
ENDTAB
  0
TABLE
  2
DIMSTYLE
  5
78
330
0
100
AcDbSymbolTable
 70
     2
  0
DIMSTYLE
105
79
330
78
100
AcDbSymbolTableRecord
100
AcDbDimStyleTableRecord
  2
STANDARD
 70
     0
  3

  4

  5

  6

  7

 40
0.0
 41
2.5
 42
0.625
 43
3.75
 44
1.25
 45
0.0
 46
0.0
 47
0.0
 48
0.0
140
2.5
141
2.5
142
0.0
143
0.03937007874016
144
1.0
145
0.0
146
1.0
147
0.625
 71
     0
 72
     0
 73
     0
 74
     0
 75
     0
 76
     0
 77
     1
 78
     8
170
     0
171
     3
172
     1
173
     0
174
     0
175
     0
176
     0
177
     0
178
     0
270
     2
271
     2
272
     2
273
     2
274
     3
340
71
275
     0
280
     0
281
     0
282
     0
283
     0
284
     8
285
     0
286
     0
287
     3
288
     0
  0
ENDTAB
  0
TABLE
  2
BLOCK_RECORD
  5
A01
330
0
100
AcDbSymbolTable
  70
5
  0
BLOCK_RECORD
  5
A02
330
A01
100
AcDbSymbolTableRecord
100
AcDbBlockTableRecord
  2
*MODEL_SPACE
  0
BLOCK_RECORD
  5
A03
330
A01
100
AcDbSymbolTableRecord
100
AcDbBlockTableRecord
  2
*PAPER_SPACE
  0
ENDTAB
  0
ENDSEC
  0
SECTION
  2
BLOCKS
  0
BLOCK
  5
A04
330
A02
100
AcDbEntity
  8
0
100
AcDbBlockBegin
  2
*MODEL_SPACE
 70
   0
 10
0
 20
0
 30
0
  3
*MODEL_SPACE
  1
 
  0
ENDBLK
  5
A05
330
A02
100
AcDbEntity
  8
0
100
AcDbBlockEnd
  0
BLOCK
  5
A06
330
A03
100
AcDbEntity
 67
1
  8
0
100
AcDbBlockBegin
  2
*PAPER_SPACE
 70
   0
 10
0
 20
0
 30
0
  3
*PAPER_SPACE
  1
 
  0
ENDBLK
  5
A07
330
A03
100
AcDbEntity
 67
    1
  8
0
100
AcDbBlockEnd
  0
ENDSEC
  0
SECTION
  2
ENTITIES
  0
ARC
  5
A08
330
A02
100
AcDbEntity
  8
PolarPattern002
100
AcDbCircle
 10
0
 20
0
 30
0
 40
150
100
AcDbArc
 50
3.2485
 51
3.64742
  0
LINE
  5
A09
330
A02
100
AcDbEntity
  8
PolarPattern002
100
AcDbLine
 10
149.696
 20
9.54247
 30
10
 11
149.696
 21
9.54247
 31
0
  0
ARC
  5
A0A
330
A02
100
AcDbEntity
  8
PolarPattern002
100
AcDbCircle
 10
0
 20
0
 30
10
 40
150
100
AcDbArc
 50
3.2485
 51
3.64742
  0
LINE
  5
A0B
330
A02
100
AcDbEntity
  8
PolarPattern002
100
AcDbLine
 10
149.759
 20
8.5
 30
10
 11
149.759
 21
8.5
 31
0
  0
ARC
  5
A0C
330
A02
100
AcDbEntity
  8
PolarPattern002
100
AcDbCircle
 10
0
 20
125
 30
0
 40
8.5
100
AcDbArc
 50
-180
 51
8.23801e-12
  0
LINE
  5
A0D
330
A02
100
AcDbEntity
  8
PolarPattern002
100
AcDbLine
 10
-8.5
 20
125
 30
0
 11
-8.5
 21
149.759
 31
0
  0
LINE
  5
A0E
330
A02
100
AcDbEntity
  8
PolarPattern002
100
AcDbLine
 10
8.5
 20
125
 30
0
 11
8.5
 21
149.759
 31
0
  0
ARC
  5
A0F
330
A02
100
AcDbEntity
  8
PolarPattern002
100
AcDbCircle
 10
0
 20
0
 30
0
 40
150
100
AcDbArc
 50
93.2485
 51
93.6474
  0
ARC
  5
A10
330
A02
100
AcDbEntity
  8
PolarPattern002
100
AcDbCircle
 10
0
 20
0
 30
0
 40
150
100
AcDbArc
 50
86.3514
 51
86.7515
  0
ARC
  5
A11
330
A02
100
AcDbEntity
  8
PolarPattern002
100
AcDbCircle
 10
-35.8362
 20
180.171
 30
0
 40
40.25
100
AcDbArc
 50
-108.289
 51
-49.2121
  0
ARC
  5
A12
330
A02
100
AcDbEntity
  8
PolarPattern002
100
AcDbCircle
 10
35.84
 20
180.17
 30
0
 40
40.25
100
AcDbArc
 50
-130.789
 51
-71.7121
  0
ARC
  5
A13
330
A02
100
AcDbEntity
  8
PolarPattern002
100
AcDbCircle
 10
0
 20
0
 30
0
 40
150
100
AcDbArc
 50
108.851
 51
109.251
  0
ARC
  5
A14
330
A02
100
AcDbEntity
  8
PolarPattern002
100
AcDbCircle
 10
0
 20
0
 30
0
 40
150
100
AcDbArc
 50
70.7485
 51
71.1474
  0
LINE
  5
A15
330
A02
100
AcDbEntity
  8
PolarPattern002
100
AcDbLine
 10
-39.9825
 20
118.738
 30
0
 11
-49.4573
 21
141.612
 31
0
  0
LINE
  5
A16
330
A02
100
AcDbEntity
  8
PolarPattern002
100
AcDbLine
 10
39.9825
 20
118.738
 30
-8.9e-16
 11
49.4573
 21
141.612
 31
-8.9e-16
  0
ARC
  5
A17
330
A02
100
AcDbEntity
  8
PolarPattern002
100
AcDbCircle
 10
-47.8354
 20
115.485
 30
0
 40
8.5
100
AcDbArc
 50
-157.5
 51
22.5
  0
ARC
  5
A18
330
A02
100
AcDbEntity
  8
PolarPattern002
100
AcDbCircle
 10
47.8354
 20
115.485
 30
0
 40
8.5
100
AcDbArc
 50
157.5
 51
-22.5
  0
LINE
  5
A19
330
A02
100
AcDbEntity
  8
PolarPattern002
100
AcDbLine
 10
-55.6884
 20
112.232
 30
0
 11
-65.1633
 21
135.106
 31
0
  0
LINE
  5
A1A
330
A02
100
AcDbEntity
  8
PolarPattern002
100
AcDbLine
 10
55.6884
 20
112.232
 30
0
 11
65.1633
 21
135.106
 31
0
  0
ARC
  5
A1B
330
A02
100
AcDbEntity
  8
PolarPattern002
100
AcDbCircle
 10
0
 20
0
 30
0
 40
150
100
AcDbArc
 50
115.749
 51
116.147
  0
ARC
  5
A1C
330
A02
100
AcDbEntity
  8
PolarPattern002
100
AcDbCircle
 10
0
 20
0
 30
0
 40
150
100
AcDbArc
 50
63.8514
 51
64.2515
  0
ARC
  5
A1D
330
A02
100
AcDbEntity
  8
PolarPattern002
100
AcDbCircle
 10
-102.057
 20
152.742
 30
0
 40
40.25
100
AcDbArc
 50
-85.7891
 51
-26.7121
  0
ARC
  5
A1E
330
A02
100
AcDbEntity
  8
PolarPattern002
100
AcDbCircle
 10
102.06
 20
152.74
 30
0
 40
40.25
100
AcDbArc
 50
-153.289
 51
-94.2121
  0
ARC
  5
A1F
330
A02
100
AcDbEntity
  8
PolarPattern002
100
AcDbCircle
 10
0
 20
0
 30
0
 40
150
100
AcDbArc
 50
131.351
 51
131.751
  0
ARC
  5
A20
330
A02
100
AcDbEntity
  8
PolarPattern002
100
AcDbCircle
 10
0
 20
0
 30
0
 40
150
100
AcDbArc
 50
48.2485
 51
48.6474
  0
LINE
  5
A21
330
A02
100
AcDbEntity
  8
PolarPattern002
100
AcDbLine
 10
-82.3779
 20
94.3988
 30
0
 11
-99.8852
 21
111.906
 31
0
  0
LINE
  5
A22
330
A02
100
AcDbEntity
  8
PolarPattern002
100
AcDbLine
 10
82.3779
 20
94.3988
 30
0
 11
99.8852
 21
111.906
 31
0
  0
ARC
  5
A23
330
A02
100
AcDbEntity
  8
PolarPattern002
100
AcDbCircle
 10
-88.3883
 20
88.3883
 30
0
 40
8.5
100
AcDbArc
 50
-135
 51
45
  0
ARC
  5
A24
330
A02
100
AcDbEntity
  8
PolarPattern002
100
AcDbCircle
 10
88.3883
 20
88.3883
 30
0
 40
8.5
100
AcDbArc
 50
135
 51
-45
  0
LINE
  5
A25
330
A02
100
AcDbEntity
  8
PolarPattern002
100
AcDbLine
 10
-94.3988
 20
82.3779
 30
0
 11
-111.906
 21
99.8852
 31
0
  0
LINE
  5
A26
330
A02
100
AcDbEntity
  8
PolarPattern002
100
AcDbLine
 10
94.3988
 20
82.3779
 30
0
 11
111.906
 21
99.8852
 31
0
  0
ARC
  5
A27
330
A02
100
AcDbEntity
  8
PolarPattern002
100
AcDbCircle
 10
0
 20
0
 30
0
 40
150
100
AcDbArc
 50
138.249
 51
138.647
  0
ARC
  5
A28
330
A02
100
AcDbEntity
  8
PolarPattern002
100
AcDbCircle
 10
0
 20
0
 30
0
 40
150
100
AcDbArc
 50
41.3514
 51
41.7515
  0
ARC
  5
A29
330
A02
100
AcDbEntity
  8
PolarPattern002
100
AcDbCircle
 10
-152.74
 20
102.06
 30
0
 40
40.25
100
AcDbArc
 50
-63.2891
 51
-4.21206
  0
ARC
  5
A2A
330
A02
100
AcDbEntity
  8
PolarPattern002
100
AcDbCircle
 10
152.742
 20
102.057
 30
0
 40
40.25
100
AcDbArc
 50
-175.789
 51
-116.712
  0
ARC
  5
A2B
330
A02
100
AcDbEntity
  8
PolarPattern002
100
AcDbCircle
 10
0
 20
0
 30
0
 40
150
100
AcDbArc
 50
153.851
 51
154.251
  0
ARC
  5
A2C
330
A02
100
AcDbEntity
  8
PolarPattern002
100
AcDbCircle
 10
0
 20
0
 30
0
 40
150
100
AcDbArc
 50
25.7485
 51
26.1474
  0
LINE
  5
A2D
330
A02
100
AcDbEntity
  8
PolarPattern002
100
AcDbLine
 10
-112.232
 20
55.6884
 30
0
 11
-135.106
 21
65.1633
 31
0
  0
LINE
  5
A2E
330
A02
100
AcDbEntity
  8
PolarPattern002
100
AcDbLine
 10
112.232
 20
55.6884
 30
0
 11
135.106
 21
65.1633
 31
0
  0
ARC
  5
A2F
330
A02
100
AcDbEntity
  8
PolarPattern002
100
AcDbCircle
 10
-115.485
 20
47.8354
 30
0
 40
8.5
100
AcDbArc
 50
-112.5
 51
67.5
  0
ARC
  5
A30
330
A02
100
AcDbEntity
  8
PolarPattern002
100
AcDbCircle
 10
115.485
 20
47.8354
 30
0
 40
8.5
100
AcDbArc
 50
112.5
 51
-67.5
  0
LINE
  5
A31
330
A02
100
AcDbEntity
  8
PolarPattern002
100
AcDbLine
 10
-118.738
 20
39.9825
 30
0
 11
-141.612
 21
49.4573
 31
0
  0
LINE
  5
A32
330
A02
100
AcDbEntity
  8
PolarPattern002
100
AcDbLine
 10
118.738
 20
39.9825
 30
0
 11
141.612
 21
49.4573
 31
0
  0
ARC
  5
A33
330
A02
100
AcDbEntity
  8
PolarPattern002
100
AcDbCircle
 10
0
 20
0
 30
0
 40
150
100
AcDbArc
 50
160.749
 51
161.147
  0
ARC
  5
A34
330
A02
100
AcDbEntity
  8
PolarPattern002
100
AcDbCircle
 10
0
 20
0
 30
0
 40
150
100
AcDbArc
 50
18.8514
 51
19.2515
  0
ARC
  5
A35
330
A02
100
AcDbEntity
  8
PolarPattern002
100
AcDbCircle
 10
-180.17
 20
35.84
 30
0
 40
40.25
100
AcDbArc
 50
-40.7891
 51
18.2879
  0
ARC
  5
A36
330
A02
100
AcDbEntity
  8
PolarPattern002
100
AcDbCircle
 10
180.171
 20
35.8362
 30
0
 40
40.25
100
AcDbArc
 50
161.711
 51
-139.212
  0
ARC
  5
A37
330
A02
100
AcDbEntity
  8
PolarPattern002
100
AcDbCircle
 10
0
 20
0
 30
0
 40
150
100
AcDbArc
 50
176.351
 51
176.751
  0
ARC
  5
A38
330
A02
100
AcDbEntity
  8
PolarPattern002
100
AcDbCircle
 10
0
 20
0
 30
0
 40
150
100
AcDbArc
 50
3.2485
 51
3.64742
  0
LINE
  5
A39
330
A02
100
AcDbEntity
  8
PolarPattern002
100
AcDbLine
 10
-125
 20
8.5
 30
0
 11
-149.759
 21
8.5
 31
0
  0
LINE
  5
A3A
330
A02
100
AcDbEntity
  8
PolarPattern002
100
AcDbLine
 10
125
 20
8.5
 30
0
 11
149.759
 21
8.5
 31
0
  0
ARC
  5
A3B
330
A02
100
AcDbEntity
  8
PolarPattern002
100
AcDbCircle
 10
-125
 20
1.388e-14
 30
0
 40
8.5
100
AcDbArc
 50
-90
 51
90
  0
ARC
  5
A3C
330
A02
100
AcDbEntity
  8
PolarPattern002
100
AcDbCircle
 10
125
 20
-2.776e-14
 30
0
 40
8.5
100
AcDbArc
 50
90
 51
-90
  0
LINE
  5
A3D
330
A02
100
AcDbEntity
  8
PolarPattern002
100
AcDbLine
 10
-125
 20
-8.5
 30
0
 11
-149.759
 21
-8.5
 31
0
  0
LINE
  5
A3E
330
A02
100
AcDbEntity
  8
PolarPattern002
100
AcDbLine
 10
125
 20
-8.5
 30
0
 11
149.759
 21
-8.5
 31
0
  0
ARC
  5
A3F
330
A02
100
AcDbEntity
  8
PolarPattern002
100
AcDbCircle
 10
0
 20
0
 30
0
 40
150
100
AcDbArc
 50
-176.751
 51
-176.353
  0
ARC
  5
A40
330
A02
100
AcDbEntity
  8
PolarPattern002
100
AcDbCircle
 10
0
 20
0
 30
0
 40
150
100
AcDbArc
 50
-3.64862
 51
-3.2485
  0
ARC
  5
A41
330
A02
100
AcDbEntity
  8
PolarPattern002
100
AcDbCircle
 10
-180.171
 20
-35.8362
 30
0
 40
40.25
100
AcDbArc
 50
-18.2891
 51
40.7879
  0
ARC
  5
A42
330
A02
100
AcDbEntity
  8
PolarPattern002
100
AcDbCircle
 10
180.17
 20
-35.84
 30
0
 40
40.25
100
AcDbArc
 50
139.211
 51
-161.712
  0
ARC
  5
A43
330
A02
100
AcDbEntity
  8
PolarPattern002
100
AcDbCircle
 10
0
 20
0
 30
0
 40
150
100
AcDbArc
 50
-161.149
 51
-160.749
  0
ARC
  5
A44
330
A02
100
AcDbEntity
  8
PolarPattern002
100
AcDbCircle
 10
0
 20
0
 30
0
 40
150
100
AcDbArc
 50
-19.2515
 51
-18.8526
  0
LINE
  5
A45
330
A02
100
AcDbEntity
  8
PolarPattern002
100
AcDbLine
 10
-118.738
 20
-39.9825
 30
0
 11
-141.612
 21
-49.4573
 31
0
  0
LINE
  5
A46
330
A02
100
AcDbEntity
  8
PolarPattern002
100
AcDbLine
 10
118.738
 20
-39.9825
 30
0
 11
141.612
 21
-49.4573
 31
0
  0
ARC
  5
A47
330
A02
100
AcDbEntity
  8
PolarPattern002
100
AcDbCircle
 10
-115.485
 20
-47.8354
 30
0
 40
8.5
100
AcDbArc
 50
-67.5
 51
112.5
  0
ARC
  5
A48
330
A02
100
AcDbEntity
  8
PolarPattern002
100
AcDbCircle
 10
115.485
 20
-47.8354
 30
0
 40
8.5
100
AcDbArc
 50
67.5
 51
-112.5
  0
LINE
  5
A49
330
A02
100
AcDbEntity
  8
PolarPattern002
100
AcDbLine
 10
-112.232
 20
-55.6884
 30
0
 11
-135.106
 21
-65.1633
 31
0
  0
LINE
  5
A4A
330
A02
100
AcDbEntity
  8
PolarPattern002
100
AcDbLine
 10
112.232
 20
-55.6884
 30
-8.9e-16
 11
135.106
 21
-65.1633
 31
-8.9e-16
  0
ARC
  5
A4B
330
A02
100
AcDbEntity
  8
PolarPattern002
100
AcDbCircle
 10
0
 20
0
 30
0
 40
150
100
AcDbArc
 50
-154.251
 51
-153.853
  0
ARC
  5
A4C
330
A02
100
AcDbEntity
  8
PolarPattern002
100
AcDbCircle
 10
0
 20
0
 30
0
 40
150
100
AcDbArc
 50
-26.1486
 51
-25.7485
  0
ARC
  5
A4D
330
A02
100
AcDbEntity
  8
PolarPattern002
100
AcDbCircle
 10
-152.742
 20
-102.057
 30
0
 40
40.25
100
AcDbArc
 50
4.21086
 51
63.2879
  0
ARC
  5
A4E
330
A02
100
AcDbEntity
  8
PolarPattern002
100
AcDbCircle
 10
152.74
 20
-102.06
 30
0
 40
40.25
100
AcDbArc
 50
116.711
 51
175.788
  0
ARC
  5
A4F
330
A02
100
AcDbEntity
  8
PolarPattern002
100
AcDbCircle
 10
0
 20
0
 30
0
 40
150
100
AcDbArc
 50
-138.649
 51
-138.249
  0
ARC
  5
A50
330
A02
100
AcDbEntity
  8
PolarPattern002
100
AcDbCircle
 10
0
 20
0
 30
0
 40
150
100
AcDbArc
 50
-41.7515
 51
-41.3526
  0
LINE
  5
A51
330
A02
100
AcDbEntity
  8
PolarPattern002
100
AcDbLine
 10
-94.3988
 20
-82.3779
 30
0
 11
-111.906
 21
-99.8852
 31
0
  0
LINE
  5
A52
330
A02
100
AcDbEntity
  8
PolarPattern002
100
AcDbLine
 10
94.3988
 20
-82.3779
 30
0
 11
111.906
 21
-99.8852
 31
0
  0
ARC
  5
A53
330
A02
100
AcDbEntity
  8
PolarPattern002
100
AcDbCircle
 10
-88.3883
 20
-88.3883
 30
0
 40
8.5
100
AcDbArc
 50
-45
 51
135
  0
ARC
  5
A54
330
A02
100
AcDbEntity
  8
PolarPattern002
100
AcDbCircle
 10
88.3883
 20
-88.3883
 30
0
 40
8.5
100
AcDbArc
 50
45
 51
-135
  0
LINE
  5
A55
330
A02
100
AcDbEntity
  8
PolarPattern002
100
AcDbLine
 10
-82.3779
 20
-94.3988
 30
0
 11
-99.8852
 21
-111.906
 31
0
  0
LINE
  5
A56
330
A02
100
AcDbEntity
  8
PolarPattern002
100
AcDbLine
 10
82.3779
 20
-94.3988
 30
0
 11
99.8852
 21
-111.906
 31
0
  0
ARC
  5
A57
330
A02
100
AcDbEntity
  8
PolarPattern002
100
AcDbCircle
 10
0
 20
0
 30
0
 40
150
100
AcDbArc
 50
-131.751
 51
-131.353
  0
ARC
  5
A58
330
A02
100
AcDbEntity
  8
PolarPattern002
100
AcDbCircle
 10
0
 20
0
 30
0
 40
150
100
AcDbArc
 50
-48.6486
 51
-48.2485
  0
ARC
  5
A59
330
A02
100
AcDbEntity
  8
PolarPattern002
100
AcDbCircle
 10
-102.06
 20
-152.74
 30
0
 40
40.25
100
AcDbArc
 50
26.7109
 51
85.7879
  0
ARC
  5
A5A
330
A02
100
AcDbEntity
  8
PolarPattern002
100
AcDbCircle
 10
102.057
 20
-152.742
 30
0
 40
40.25
100
AcDbArc
 50
94.2109
 51
153.288
  0
ARC
  5
A5B
330
A02
100
AcDbEntity
  8
PolarPattern002
100
AcDbCircle
 10
0
 20
0
 30
0
 40
150
100
AcDbArc
 50
-116.149
 51
-115.749
  0
ARC
  5
A5C
330
A02
100
AcDbEntity
  8
PolarPattern002
100
AcDbCircle
 10
0
 20
0
 30
0
 40
150
100
AcDbArc
 50
-64.2515
 51
-63.8526
  0
LINE
  5
A5D
330
A02
100
AcDbEntity
  8
PolarPattern002
100
AcDbLine
 10
-55.6884
 20
-112.232
 30
0
 11
-65.1633
 21
-135.106
 31
0
  0
LINE
  5
A5E
330
A02
100
AcDbEntity
  8
PolarPattern002
100
AcDbLine
 10
55.6884
 20
-112.232
 30
8.9e-16
 11
65.1633
 21
-135.106
 31
8.9e-16
  0
ARC
  5
A5F
330
A02
100
AcDbEntity
  8
PolarPattern002
100
AcDbCircle
 10
-47.8354
 20
-115.485
 30
0
 40
8.5
100
AcDbArc
 50
-22.5
 51
157.5
  0
ARC
  5
A60
330
A02
100
AcDbEntity
  8
PolarPattern002
100
AcDbCircle
 10
47.8354
 20
-115.485
 30
0
 40
8.5
100
AcDbArc
 50
22.5
 51
-157.5
  0
LINE
  5
A61
330
A02
100
AcDbEntity
  8
PolarPattern002
100
AcDbLine
 10
-39.9825
 20
-118.738
 30
0
 11
-49.4573
 21
-141.612
 31
0
  0
LINE
  5
A62
330
A02
100
AcDbEntity
  8
PolarPattern002
100
AcDbLine
 10
39.9825
 20
-118.738
 30
8.9e-16
 11
49.4573
 21
-141.612
 31
8.9e-16
  0
ARC
  5
A63
330
A02
100
AcDbEntity
  8
PolarPattern002
100
AcDbCircle
 10
0
 20
0
 30
0
 40
150
100
AcDbArc
 50
-109.251
 51
-108.853
  0
ARC
  5
A64
330
A02
100
AcDbEntity
  8
PolarPattern002
100
AcDbCircle
 10
0
 20
0
 30
0
 40
150
100
AcDbArc
 50
-71.1486
 51
-70.7485
  0
ARC
  5
A65
330
A02
100
AcDbEntity
  8
PolarPattern002
100
AcDbCircle
 10
-35.84
 20
-180.17
 30
0
 40
40.25
100
AcDbArc
 50
49.2109
 51
108.288
  0
ARC
  5
A66
330
A02
100
AcDbEntity
  8
PolarPattern002
100
AcDbCircle
 10
35.8362
 20
-180.171
 30
0
 40
40.25
100
AcDbArc
 50
71.7109
 51
130.788
  0
ARC
  5
A67
330
A02
100
AcDbEntity
  8
PolarPattern002
100
AcDbCircle
 10
0
 20
0
 30
0
 40
150
100
AcDbArc
 50
-93.6486
 51
-93.2485
  0
ARC
  5
A68
330
A02
100
AcDbEntity
  8
PolarPattern002
100
AcDbCircle
 10
0
 20
0
 30
0
 40
150
100
AcDbArc
 50
-86.7515
 51
-86.3526
  0
LINE
  5
A69
330
A02
100
AcDbEntity
  8
PolarPattern002
100
AcDbLine
 10
-8.5
 20
-125
 30
0
 11
-8.5
 21
-149.759
 31
0
  0
LINE
  5
A6A
330
A02
100
AcDbEntity
  8
PolarPattern002
100
AcDbLine
 10
8.5
 20
-125
 30
0
 11
8.5
 21
-149.759
 31
0
  0
ARC
  5
A6B
330
A02
100
AcDbEntity
  8
PolarPattern002
100
AcDbCircle
 10
-1.531e-14
 20
-125
 30
0
 40
8.5
100
AcDbArc
 50
9.57908e-14
 51
-180
  0
CIRCLE
  5
A6C
330
A02
100
AcDbEntity
  8
PolarPattern002
100
AcDbCircle
 10
-56.5685
 20
-56.5685
 40
5.05
  0
CIRCLE
  5
A6D
330
A02
100
AcDbEntity
  8
PolarPattern002
100
AcDbCircle
 10
-9.8e-15
 20
-80
 40
5.05
  0
CIRCLE
  5
A6E
330
A02
100
AcDbEntity
  8
PolarPattern002
100
AcDbCircle
 10
56.5685
 20
-56.5685
 40
5.05
  0
CIRCLE
  5
A6F
330
A02
100
AcDbEntity
  8
PolarPattern002
100
AcDbCircle
 10
80
 20
-1.776e-14
 40
5.05
  0
CIRCLE
  5
A70
330
A02
100
AcDbEntity
  8
PolarPattern002
100
AcDbCircle
 10
-80
 20
8.88e-15
 40
5.05
  0
CIRCLE
  5
A71
330
A02
100
AcDbEntity
  8
PolarPattern002
100
AcDbCircle
 10
-56.5685
 20
56.5685
 40
5.05
  0
CIRCLE
  5
A72
330
A02
100
AcDbEntity
  8
PolarPattern002
100
AcDbCircle
 10
0
 20
0
 40
60
  0
CIRCLE
  5
A73
330
A02
100
AcDbEntity
  8
PolarPattern002
100
AcDbCircle
 10
0
 20
80
 40
5.05
  0
CIRCLE
  5
A74
330
A02
100
AcDbEntity
  8
PolarPattern002
100
AcDbCircle
 10
56.5685
 20
56.5685
 40
5.05
  0
ARC
  5
A75
330
A02
100
AcDbEntity
  8
PolarPattern002
100
AcDbCircle
 10
180.171
 20
35.8362
 30
10
 40
40.25
100
AcDbArc
 50
161.711
 51
-139.212
  0
LINE
  5
A76
330
A02
100
AcDbEntity
  8
PolarPattern002
100
AcDbLine
 10
149.696
 20
9.54247
 30
10
 11
149.696
 21
9.54247
 31
0
  0
ARC
  5
A77
330
A02
100
AcDbEntity
  8
PolarPattern002
100
AcDbCircle
 10
180.171
 20
35.8362
 30
0
 40
40.25
100
AcDbArc
 50
161.711
 51
-139.212
  0
LINE
  5
A78
330
A02
100
AcDbEntity
  8
PolarPattern002
100
AcDbLine
 10
141.954
 20
48.4672
 30
10
 11
141.954
 21
48.4672
 31
0
  0
ARC
  5
A79
330
A02
100
AcDbEntity
  8
PolarPattern002
100
AcDbCircle
 10
0
 20
125
 30
10
 40
8.5
100
AcDbArc
 50
-180
 51
8.23801e-12
  0
LINE
  5
A7A
330
A02
100
AcDbEntity
  8
PolarPattern002
100
AcDbLine
 10
-8.5
 20
125
 30
10
 11
-8.5
 21
149.759
 31
10
  0
LINE
  5
A7B
330
A02
100
AcDbEntity
  8
PolarPattern002
100
AcDbLine
 10
8.5
 20
125
 30
10
 11
8.5
 21
149.759
 31
10
  0
ARC
  5
A7C
330
A02
100
AcDbEntity
  8
PolarPattern002
100
AcDbCircle
 10
0
 20
0
 30
10
 40
150
100
AcDbArc
 50
93.2485
 51
93.6474
  0
ARC
  5
A7D
330
A02
100
AcDbEntity
  8
PolarPattern002
100
AcDbCircle
 10
0
 20
0
 30
10
 40
150
100
AcDbArc
 50
86.3514
 51
86.7515
  0
ARC
  5
A7E
330
A02
100
AcDbEntity
  8
PolarPattern002
100
AcDbCircle
 10
-35.8362
 20
180.171
 30
10
 40
40.25
100
AcDbArc
 50
-108.289
 51
-49.2121
  0
ARC
  5
A7F
330
A02
100
AcDbEntity
  8
PolarPattern002
100
AcDbCircle
 10
35.84
 20
180.17
 30
10
 40
40.25
100
AcDbArc
 50
-130.789
 51
-71.7121
  0
ARC
  5
A80
330
A02
100
AcDbEntity
  8
PolarPattern002
100
AcDbCircle
 10
0
 20
0
 30
10
 40
150
100
AcDbArc
 50
108.851
 51
109.251
  0
ARC
  5
A81
330
A02
100
AcDbEntity
  8
PolarPattern002
100
AcDbCircle
 10
0
 20
0
 30
10
 40
150
100
AcDbArc
 50
70.7485
 51
71.1474
  0
LINE
  5
A82
330
A02
100
AcDbEntity
  8
PolarPattern002
100
AcDbLine
 10
-39.9825
 20
118.738
 30
10
 11
-49.4573
 21
141.612
 31
10
  0
LINE
  5
A83
330
A02
100
AcDbEntity
  8
PolarPattern002
100
AcDbLine
 10
39.9825
 20
118.738
 30
10
 11
49.4573
 21
141.612
 31
10
  0
ARC
  5
A84
330
A02
100
AcDbEntity
  8
PolarPattern002
100
AcDbCircle
 10
-47.8354
 20
115.485
 30
10
 40
8.5
100
AcDbArc
 50
-157.5
 51
22.5
  0
ARC
  5
A85
330
A02
100
AcDbEntity
  8
PolarPattern002
100
AcDbCircle
 10
47.8354
 20
115.485
 30
10
 40
8.5
100
AcDbArc
 50
157.5
 51
-22.5
  0
LINE
  5
A86
330
A02
100
AcDbEntity
  8
PolarPattern002
100
AcDbLine
 10
-55.6884
 20
112.232
 30
10
 11
-65.1633
 21
135.106
 31
10
  0
LINE
  5
A87
330
A02
100
AcDbEntity
  8
PolarPattern002
100
AcDbLine
 10
55.6884
 20
112.232
 30
10
 11
65.1633
 21
135.106
 31
10
  0
ARC
  5
A88
330
A02
100
AcDbEntity
  8
PolarPattern002
100
AcDbCircle
 10
0
 20
0
 30
10
 40
150
100
AcDbArc
 50
115.749
 51
116.147
  0
ARC
  5
A89
330
A02
100
AcDbEntity
  8
PolarPattern002
100
AcDbCircle
 10
0
 20
0
 30
10
 40
150
100
AcDbArc
 50
63.8514
 51
64.2515
  0
ARC
  5
A8A
330
A02
100
AcDbEntity
  8
PolarPattern002
100
AcDbCircle
 10
-102.057
 20
152.742
 30
10
 40
40.25
100
AcDbArc
 50
-85.7891
 51
-26.7121
  0
ARC
  5
A8B
330
A02
100
AcDbEntity
  8
PolarPattern002
100
AcDbCircle
 10
102.06
 20
152.74
 30
10
 40
40.25
100
AcDbArc
 50
-153.289
 51
-94.2121
  0
ARC
  5
A8C
330
A02
100
AcDbEntity
  8
PolarPattern002
100
AcDbCircle
 10
0
 20
0
 30
10
 40
150
100
AcDbArc
 50
131.351
 51
131.751
  0
ARC
  5
A8D
330
A02
100
AcDbEntity
  8
PolarPattern002
100
AcDbCircle
 10
0
 20
0
 30
10
 40
150
100
AcDbArc
 50
48.2485
 51
48.6474
  0
LINE
  5
A8E
330
A02
100
AcDbEntity
  8
PolarPattern002
100
AcDbLine
 10
-82.3779
 20
94.3988
 30
10
 11
-99.8852
 21
111.906
 31
10
  0
LINE
  5
A8F
330
A02
100
AcDbEntity
  8
PolarPattern002
100
AcDbLine
 10
82.3779
 20
94.3988
 30
10
 11
99.8852
 21
111.906
 31
10
  0
ARC
  5
A90
330
A02
100
AcDbEntity
  8
PolarPattern002
100
AcDbCircle
 10
-88.3883
 20
88.3883
 30
10
 40
8.5
100
AcDbArc
 50
-135
 51
45
  0
ARC
  5
A91
330
A02
100
AcDbEntity
  8
PolarPattern002
100
AcDbCircle
 10
88.3883
 20
88.3883
 30
10
 40
8.5
100
AcDbArc
 50
135
 51
-45
  0
LINE
  5
A92
330
A02
100
AcDbEntity
  8
PolarPattern002
100
AcDbLine
 10
-94.3988
 20
82.3779
 30
10
 11
-111.906
 21
99.8852
 31
10
  0
LINE
  5
A93
330
A02
100
AcDbEntity
  8
PolarPattern002
100
AcDbLine
 10
94.3988
 20
82.3779
 30
10
 11
111.906
 21
99.8852
 31
10
  0
ARC
  5
A94
330
A02
100
AcDbEntity
  8
PolarPattern002
100
AcDbCircle
 10
0
 20
0
 30
10
 40
150
100
AcDbArc
 50
138.249
 51
138.647
  0
ARC
  5
A95
330
A02
100
AcDbEntity
  8
PolarPattern002
100
AcDbCircle
 10
0
 20
0
 30
10
 40
150
100
AcDbArc
 50
41.3514
 51
41.7515
  0
ARC
  5
A96
330
A02
100
AcDbEntity
  8
PolarPattern002
100
AcDbCircle
 10
-152.74
 20
102.06
 30
10
 40
40.25
100
AcDbArc
 50
-63.2891
 51
-4.21206
  0
ARC
  5
A97
330
A02
100
AcDbEntity
  8
PolarPattern002
100
AcDbCircle
 10
152.742
 20
102.057
 30
10
 40
40.25
100
AcDbArc
 50
-175.789
 51
-116.712
  0
ARC
  5
A98
330
A02
100
AcDbEntity
  8
PolarPattern002
100
AcDbCircle
 10
0
 20
0
 30
10
 40
150
100
AcDbArc
 50
153.851
 51
154.251
  0
ARC
  5
A99
330
A02
100
AcDbEntity
  8
PolarPattern002
100
AcDbCircle
 10
0
 20
0
 30
10
 40
150
100
AcDbArc
 50
25.7485
 51
26.1474
  0
LINE
  5
A9A
330
A02
100
AcDbEntity
  8
PolarPattern002
100
AcDbLine
 10
-112.232
 20
55.6884
 30
10
 11
-135.106
 21
65.1633
 31
10
  0
LINE
  5
A9B
330
A02
100
AcDbEntity
  8
PolarPattern002
100
AcDbLine
 10
112.232
 20
55.6884
 30
10
 11
135.106
 21
65.1633
 31
10
  0
ARC
  5
A9C
330
A02
100
AcDbEntity
  8
PolarPattern002
100
AcDbCircle
 10
-115.485
 20
47.8354
 30
10
 40
8.5
100
AcDbArc
 50
-112.5
 51
67.5
  0
ARC
  5
A9D
330
A02
100
AcDbEntity
  8
PolarPattern002
100
AcDbCircle
 10
115.485
 20
47.8354
 30
10
 40
8.5
100
AcDbArc
 50
112.5
 51
-67.5
  0
LINE
  5
A9E
330
A02
100
AcDbEntity
  8
PolarPattern002
100
AcDbLine
 10
-118.738
 20
39.9825
 30
10
 11
-141.612
 21
49.4573
 31
10
  0
LINE
  5
A9F
330
A02
100
AcDbEntity
  8
PolarPattern002
100
AcDbLine
 10
118.738
 20
39.9825
 30
10
 11
141.612
 21
49.4573
 31
10
  0
ARC
  5
AA0
330
A02
100
AcDbEntity
  8
PolarPattern002
100
AcDbCircle
 10
0
 20
0
 30
10
 40
150
100
AcDbArc
 50
160.749
 51
161.147
  0
ARC
  5
AA1
330
A02
100
AcDbEntity
  8
PolarPattern002
100
AcDbCircle
 10
0
 20
0
 30
10
 40
150
100
AcDbArc
 50
18.8514
 51
19.2515
  0
ARC
  5
AA2
330
A02
100
AcDbEntity
  8
PolarPattern002
100
AcDbCircle
 10
-180.17
 20
35.84
 30
10
 40
40.25
100
AcDbArc
 50
-40.7891
 51
18.2879
  0
ARC
  5
AA3
330
A02
100
AcDbEntity
  8
PolarPattern002
100
AcDbCircle
 10
180.171
 20
35.8362
 30
10
 40
40.25
100
AcDbArc
 50
161.711
 51
-139.212
  0
ARC
  5
AA4
330
A02
100
AcDbEntity
  8
PolarPattern002
100
AcDbCircle
 10
0
 20
0
 30
10
 40
150
100
AcDbArc
 50
176.351
 51
176.751
  0
ARC
  5
AA5
330
A02
100
AcDbEntity
  8
PolarPattern002
100
AcDbCircle
 10
0
 20
0
 30
10
 40
150
100
AcDbArc
 50
3.2485
 51
3.64742
  0
LINE
  5
AA6
330
A02
100
AcDbEntity
  8
PolarPattern002
100
AcDbLine
 10
-125
 20
8.5
 30
10
 11
-149.759
 21
8.5
 31
10
  0
LINE
  5
AA7
330
A02
100
AcDbEntity
  8
PolarPattern002
100
AcDbLine
 10
125
 20
8.5
 30
10
 11
149.759
 21
8.5
 31
10
  0
ARC
  5
AA8
330
A02
100
AcDbEntity
  8
PolarPattern002
100
AcDbCircle
 10
-125
 20
0
 30
10
 40
8.5
100
AcDbArc
 50
-90
 51
90
  0
ARC
  5
AA9
330
A02
100
AcDbEntity
  8
PolarPattern002
100
AcDbCircle
 10
125
 20
0
 30
10
 40
8.5
100
AcDbArc
 50
90
 51
-90
  0
LINE
  5
AAA
330
A02
100
AcDbEntity
  8
PolarPattern002
100
AcDbLine
 10
-125
 20
-8.5
 30
10
 11
-149.759
 21
-8.5
 31
10
  0
LINE
  5
AAB
330
A02
100
AcDbEntity
  8
PolarPattern002
100
AcDbLine
 10
125
 20
-8.5
 30
10
 11
149.759
 21
-8.5
 31
10
  0
ARC
  5
AAC
330
A02
100
AcDbEntity
  8
PolarPattern002
100
AcDbCircle
 10
0
 20
0
 30
10
 40
150
100
AcDbArc
 50
-176.751
 51
-176.353
  0
ARC
  5
AAD
330
A02
100
AcDbEntity
  8
PolarPattern002
100
AcDbCircle
 10
0
 20
0
 30
10
 40
150
100
AcDbArc
 50
-3.64862
 51
-3.2485
  0
ARC
  5
AAE
330
A02
100
AcDbEntity
  8
PolarPattern002
100
AcDbCircle
 10
-180.171
 20
-35.8362
 30
10
 40
40.25
100
AcDbArc
 50
-18.2891
 51
40.7879
  0
ARC
  5
AAF
330
A02
100
AcDbEntity
  8
PolarPattern002
100
AcDbCircle
 10
180.17
 20
-35.84
 30
10
 40
40.25
100
AcDbArc
 50
139.211
 51
-161.712
  0
ARC
  5
AB0
330
A02
100
AcDbEntity
  8
PolarPattern002
100
AcDbCircle
 10
0
 20
0
 30
10
 40
150
100
AcDbArc
 50
-161.149
 51
-160.749
  0
ARC
  5
AB1
330
A02
100
AcDbEntity
  8
PolarPattern002
100
AcDbCircle
 10
0
 20
0
 30
10
 40
150
100
AcDbArc
 50
-19.2515
 51
-18.8526
  0
LINE
  5
AB2
330
A02
100
AcDbEntity
  8
PolarPattern002
100
AcDbLine
 10
-118.738
 20
-39.9825
 30
10
 11
-141.612
 21
-49.4573
 31
10
  0
LINE
  5
AB3
330
A02
100
AcDbEntity
  8
PolarPattern002
100
AcDbLine
 10
118.738
 20
-39.9825
 30
10
 11
141.612
 21
-49.4573
 31
10
  0
ARC
  5
AB4
330
A02
100
AcDbEntity
  8
PolarPattern002
100
AcDbCircle
 10
-115.485
 20
-47.8354
 30
10
 40
8.5
100
AcDbArc
 50
-67.5
 51
112.5
  0
ARC
  5
AB5
330
A02
100
AcDbEntity
  8
PolarPattern002
100
AcDbCircle
 10
115.485
 20
-47.8354
 30
10
 40
8.5
100
AcDbArc
 50
67.5
 51
-112.5
  0
LINE
  5
AB6
330
A02
100
AcDbEntity
  8
PolarPattern002
100
AcDbLine
 10
-112.232
 20
-55.6884
 30
10
 11
-135.106
 21
-65.1633
 31
10
  0
LINE
  5
AB7
330
A02
100
AcDbEntity
  8
PolarPattern002
100
AcDbLine
 10
112.232
 20
-55.6884
 30
10
 11
135.106
 21
-65.1633
 31
10
  0
ARC
  5
AB8
330
A02
100
AcDbEntity
  8
PolarPattern002
100
AcDbCircle
 10
0
 20
0
 30
10
 40
150
100
AcDbArc
 50
-154.251
 51
-153.853
  0
ARC
  5
AB9
330
A02
100
AcDbEntity
  8
PolarPattern002
100
AcDbCircle
 10
0
 20
0
 30
10
 40
150
100
AcDbArc
 50
-26.1486
 51
-25.7485
  0
ARC
  5
ABA
330
A02
100
AcDbEntity
  8
PolarPattern002
100
AcDbCircle
 10
-152.742
 20
-102.057
 30
10
 40
40.25
100
AcDbArc
 50
4.21086
 51
63.2879
  0
ARC
  5
ABB
330
A02
100
AcDbEntity
  8
PolarPattern002
100
AcDbCircle
 10
152.74
 20
-102.06
 30
10
 40
40.25
100
AcDbArc
 50
116.711
 51
175.788
  0
ARC
  5
ABC
330
A02
100
AcDbEntity
  8
PolarPattern002
100
AcDbCircle
 10
0
 20
0
 30
10
 40
150
100
AcDbArc
 50
-138.649
 51
-138.249
  0
ARC
  5
ABD
330
A02
100
AcDbEntity
  8
PolarPattern002
100
AcDbCircle
 10
0
 20
0
 30
10
 40
150
100
AcDbArc
 50
-41.7515
 51
-41.3526
  0
LINE
  5
ABE
330
A02
100
AcDbEntity
  8
PolarPattern002
100
AcDbLine
 10
-94.3988
 20
-82.3779
 30
10
 11
-111.906
 21
-99.8852
 31
10
  0
LINE
  5
ABF
330
A02
100
AcDbEntity
  8
PolarPattern002
100
AcDbLine
 10
94.3988
 20
-82.3779
 30
10
 11
111.906
 21
-99.8852
 31
10
  0
ARC
  5
AC0
330
A02
100
AcDbEntity
  8
PolarPattern002
100
AcDbCircle
 10
-88.3883
 20
-88.3883
 30
10
 40
8.5
100
AcDbArc
 50
-45
 51
135
  0
ARC
  5
AC1
330
A02
100
AcDbEntity
  8
PolarPattern002
100
AcDbCircle
 10
88.3883
 20
-88.3883
 30
10
 40
8.5
100
AcDbArc
 50
45
 51
-135
  0
LINE
  5
AC2
330
A02
100
AcDbEntity
  8
PolarPattern002
100
AcDbLine
 10
-82.3779
 20
-94.3988
 30
10
 11
-99.8852
 21
-111.906
 31
10
  0
LINE
  5
AC3
330
A02
100
AcDbEntity
  8
PolarPattern002
100
AcDbLine
 10
82.3779
 20
-94.3988
 30
10
 11
99.8852
 21
-111.906
 31
10
  0
ARC
  5
AC4
330
A02
100
AcDbEntity
  8
PolarPattern002
100
AcDbCircle
 10
0
 20
0
 30
10
 40
150
100
AcDbArc
 50
-131.751
 51
-131.353
  0
ARC
  5
AC5
330
A02
100
AcDbEntity
  8
PolarPattern002
100
AcDbCircle
 10
0
 20
0
 30
10
 40
150
100
AcDbArc
 50
-48.6486
 51
-48.2485
  0
ARC
  5
AC6
330
A02
100
AcDbEntity
  8
PolarPattern002
100
AcDbCircle
 10
-102.06
 20
-152.74
 30
10
 40
40.25
100
AcDbArc
 50
26.7109
 51
85.7879
  0
ARC
  5
AC7
330
A02
100
AcDbEntity
  8
PolarPattern002
100
AcDbCircle
 10
102.057
 20
-152.742
 30
10
 40
40.25
100
AcDbArc
 50
94.2109
 51
153.288
  0
ARC
  5
AC8
330
A02
100
AcDbEntity
  8
PolarPattern002
100
AcDbCircle
 10
0
 20
0
 30
10
 40
150
100
AcDbArc
 50
-116.149
 51
-115.749
  0
ARC
  5
AC9
330
A02
100
AcDbEntity
  8
PolarPattern002
100
AcDbCircle
 10
0
 20
0
 30
10
 40
150
100
AcDbArc
 50
-64.2515
 51
-63.8526
  0
LINE
  5
ACA
330
A02
100
AcDbEntity
  8
PolarPattern002
100
AcDbLine
 10
-55.6884
 20
-112.232
 30
10
 11
-65.1633
 21
-135.106
 31
10
  0
LINE
  5
ACB
330
A02
100
AcDbEntity
  8
PolarPattern002
100
AcDbLine
 10
55.6884
 20
-112.232
 30
10
 11
65.1633
 21
-135.106
 31
10
  0
ARC
  5
ACC
330
A02
100
AcDbEntity
  8
PolarPattern002
100
AcDbCircle
 10
-47.8354
 20
-115.485
 30
10
 40
8.5
100
AcDbArc
 50
-22.5
 51
157.5
  0
ARC
  5
ACD
330
A02
100
AcDbEntity
  8
PolarPattern002
100
AcDbCircle
 10
47.8354
 20
-115.485
 30
10
 40
8.5
100
AcDbArc
 50
22.5
 51
-157.5
  0
LINE
  5
ACE
330
A02
100
AcDbEntity
  8
PolarPattern002
100
AcDbLine
 10
-39.9825
 20
-118.738
 30
10
 11
-49.4573
 21
-141.612
 31
10
  0
LINE
  5
ACF
330
A02
100
AcDbEntity
  8
PolarPattern002
100
AcDbLine
 10
39.9825
 20
-118.738
 30
10
 11
49.4573
 21
-141.612
 31
10
  0
ARC
  5
AD0
330
A02
100
AcDbEntity
  8
PolarPattern002
100
AcDbCircle
 10
0
 20
0
 30
10
 40
150
100
AcDbArc
 50
-109.251
 51
-108.853
  0
ARC
  5
AD1
330
A02
100
AcDbEntity
  8
PolarPattern002
100
AcDbCircle
 10
0
 20
0
 30
10
 40
150
100
AcDbArc
 50
-71.1486
 51
-70.7485
  0
ARC
  5
AD2
330
A02
100
AcDbEntity
  8
PolarPattern002
100
AcDbCircle
 10
-35.84
 20
-180.17
 30
10
 40
40.25
100
AcDbArc
 50
49.2109
 51
108.288
  0
ARC
  5
AD3
330
A02
100
AcDbEntity
  8
PolarPattern002
100
AcDbCircle
 10
35.8362
 20
-180.171
 30
10
 40
40.25
100
AcDbArc
 50
71.7109
 51
130.788
  0
ARC
  5
AD4
330
A02
100
AcDbEntity
  8
PolarPattern002
100
AcDbCircle
 10
0
 20
0
 30
10
 40
150
100
AcDbArc
 50
-93.6486
 51
-93.2485
  0
ARC
  5
AD5
330
A02
100
AcDbEntity
  8
PolarPattern002
100
AcDbCircle
 10
0
 20
0
 30
10
 40
150
100
AcDbArc
 50
-86.7515
 51
-86.3526
  0
LINE
  5
AD6
330
A02
100
AcDbEntity
  8
PolarPattern002
100
AcDbLine
 10
-8.5
 20
-125
 30
10
 11
-8.5
 21
-149.759
 31
10
  0
LINE
  5
AD7
330
A02
100
AcDbEntity
  8
PolarPattern002
100
AcDbLine
 10
8.5
 20
-125
 30
10
 11
8.5
 21
-149.759
 31
10
  0
ARC
  5
AD8
330
A02
100
AcDbEntity
  8
PolarPattern002
100
AcDbCircle
 10
0
 20
-125
 30
10
 40
8.5
100
AcDbArc
 50
9.57908e-14
 51
-180
  0
CIRCLE
  5
AD9
330
A02
100
AcDbEntity
  8
PolarPattern002
100
AcDbCircle
 10
-56.5685
 20
-56.5685
 40
5.05
  0
CIRCLE
  5
ADA
330
A02
100
AcDbEntity
  8
PolarPattern002
100
AcDbCircle
 10
0
 20
-80
 40
5.05
  0
CIRCLE
  5
ADB
330
A02
100
AcDbEntity
  8
PolarPattern002
100
AcDbCircle
 10
56.5685
 20
-56.5685
 40
5.05
  0
CIRCLE
  5
ADC
330
A02
100
AcDbEntity
  8
PolarPattern002
100
AcDbCircle
 10
80
 20
0
 40
5.05
  0
CIRCLE
  5
ADD
330
A02
100
AcDbEntity
  8
PolarPattern002
100
AcDbCircle
 10
-80
 20
0
 40
5.05
  0
CIRCLE
  5
ADE
330
A02
100
AcDbEntity
  8
PolarPattern002
100
AcDbCircle
 10
-56.5685
 20
56.5685
 40
5.05
  0
CIRCLE
  5
ADF
330
A02
100
AcDbEntity
  8
PolarPattern002
100
AcDbCircle
 10
0
 20
0
 40
60
  0
CIRCLE
  5
AE0
330
A02
100
AcDbEntity
  8
PolarPattern002
100
AcDbCircle
 10
0
 20
80
 40
5.05
  0
CIRCLE
  5
AE1
330
A02
100
AcDbEntity
  8
PolarPattern002
100
AcDbCircle
 10
56.5685
 20
56.5685
 40
5.05
  0
LINE
  5
AE2
330
A02
100
AcDbEntity
  8
PolarPattern002
100
AcDbLine
 10
125
 20
8.5
 30
10
 11
149.759
 21
8.5
 31
10
  0
LINE
  5
AE3
330
A02
100
AcDbEntity
  8
PolarPattern002
100
AcDbLine
 10
149.759
 20
8.5
 30
10
 11
149.759
 21
8.5
 31
0
  0
LINE
  5
AE4
330
A02
100
AcDbEntity
  8
PolarPattern002
100
AcDbLine
 10
125
 20
8.5
 30
0
 11
149.759
 21
8.5
 31
0
  0
LINE
  5
AE5
330
A02
100
AcDbEntity
  8
PolarPattern002
100
AcDbLine
 10
125
 20
8.5
 30
10
 11
125
 21
8.5
 31
0
  0
ARC
  5
AE6
330
A02
100
AcDbEntity
  8
PolarPattern002
100
AcDbCircle
 10
0
 20
125
 30
10
 40
8.5
100
AcDbArc
 50
-180
 51
8.23801e-12
  0
LINE
  5
AE7
330
A02
100
AcDbEntity
  8
PolarPattern002
100
AcDbLine
 10
8.5
 20
125
 30
10
 11
8.5
 21
125
 31
0
  0
ARC
  5
AE8
330
A02
100
AcDbEntity
  8
PolarPattern002
100
AcDbCircle
 10
0
 20
125
 30
0
 40
8.5
100
AcDbArc
 50
-180
 51
8.23801e-12
  0
LINE
  5
AE9
330
A02
100
AcDbEntity
  8
PolarPattern002
100
AcDbLine
 10
-8.5
 20
125
 30
10
 11
-8.5
 21
125
 31
0
  0
LINE
  5
AEA
330
A02
100
AcDbEntity
  8
PolarPattern002
100
AcDbLine
 10
-8.5
 20
125
 30
10
 11
-8.5
 21
149.759
 31
10
  0
LINE
  5
AEB
330
A02
100
AcDbEntity
  8
PolarPattern002
100
AcDbLine
 10
-8.5
 20
149.759
 30
10
 11
-8.5
 21
149.759
 31
0
  0
LINE
  5
AEC
330
A02
100
AcDbEntity
  8
PolarPattern002
100
AcDbLine
 10
-8.5
 20
125
 30
0
 11
-8.5
 21
149.759
 31
0
  0
LINE
  5
AED
330
A02
100
AcDbEntity
  8
PolarPattern002
100
AcDbLine
 10
-8.5
 20
125
 30
10
 11
-8.5
 21
125
 31
0
  0
LINE
  5
AEE
330
A02
100
AcDbEntity
  8
PolarPattern002
100
AcDbLine
 10
8.5
 20
125
 30
10
 11
8.5
 21
149.759
 31
10
  0
LINE
  5
AEF
330
A02
100
AcDbEntity
  8
PolarPattern002
100
AcDbLine
 10
8.5
 20
149.759
 30
10
 11
8.5
 21
149.759
 31
0
  0
LINE
  5
AF0
330
A02
100
AcDbEntity
  8
PolarPattern002
100
AcDbLine
 10
8.5
 20
125
 30
0
 11
8.5
 21
149.759
 31
0
  0
LINE
  5
AF1
330
A02
100
AcDbEntity
  8
PolarPattern002
100
AcDbLine
 10
8.5
 20
125
 30
10
 11
8.5
 21
125
 31
0
  0
ARC
  5
AF2
330
A02
100
AcDbEntity
  8
PolarPattern002
100
AcDbCircle
 10
0
 20
0
 30
10
 40
150
100
AcDbArc
 50
93.2485
 51
93.6474
  0
LINE
  5
AF3
330
A02
100
AcDbEntity
  8
PolarPattern002
100
AcDbLine
 10
-8.5
 20
149.759
 30
10
 11
-8.5
 21
149.759
 31
0
  0
ARC
  5
AF4
330
A02
100
AcDbEntity
  8
PolarPattern002
100
AcDbCircle
 10
0
 20
0
 30
0
 40
150
100
AcDbArc
 50
93.2485
 51
93.6474
  0
LINE
  5
AF5
330
A02
100
AcDbEntity
  8
PolarPattern002
100
AcDbLine
 10
-9.54247
 20
149.696
 30
10
 11
-9.54247
 21
149.696
 31
0
  0
ARC
  5
AF6
330
A02
100
AcDbEntity
  8
PolarPattern002
100
AcDbCircle
 10
0
 20
0
 30
0
 40
150
100
AcDbArc
 50
86.3514
 51
86.7515
  0
LINE
  5
AF7
330
A02
100
AcDbEntity
  8
PolarPattern002
100
AcDbLine
 10
8.5
 20
149.759
 30
10
 11
8.5
 21
149.759
 31
0
  0
ARC
  5
AF8
330
A02
100
AcDbEntity
  8
PolarPattern002
100
AcDbCircle
 10
0
 20
0
 30
10
 40
150
100
AcDbArc
 50
86.3514
 51
86.7515
  0
LINE
  5
AF9
330
A02
100
AcDbEntity
  8
PolarPattern002
100
AcDbLine
 10
9.5456
 20
149.696
 30
10
 11
9.5456
 21
149.696
 31
0
  0
ARC
  5
AFA
330
A02
100
AcDbEntity
  8
PolarPattern002
100
AcDbCircle
 10
-35.8362
 20
180.171
 30
10
 40
40.25
100
AcDbArc
 50
-108.289
 51
-49.2121
  0
LINE
  5
AFB
330
A02
100
AcDbEntity
  8
PolarPattern002
100
AcDbLine
 10
-9.54247
 20
149.696
 30
10
 11
-9.54247
 21
149.696
 31
0
  0
ARC
  5
AFC
330
A02
100
AcDbEntity
  8
PolarPattern002
100
AcDbCircle
 10
-35.8362
 20
180.171
 30
0
 40
40.25
100
AcDbArc
 50
-108.289
 51
-49.2121
  0
LINE
  5
AFD
330
A02
100
AcDbEntity
  8
PolarPattern002
100
AcDbLine
 10
-48.4672
 20
141.954
 30
10
 11
-48.4672
 21
141.954
 31
0
  0
ARC
  5
AFE
330
A02
100
AcDbEntity
  8
PolarPattern002
100
AcDbCircle
 10
35.84
 20
180.17
 30
10
 40
40.25
100
AcDbArc
 50
-130.789
 51
-71.7121
  0
LINE
  5
AFF
330
A02
100
AcDbEntity
  8
PolarPattern002
100
AcDbLine
 10
48.4702
 20
141.953
 30
10
 11
48.4702
 21
141.953
 31
0
  0
ARC
  5
B00
330
A02
100
AcDbEntity
  8
PolarPattern002
100
AcDbCircle
 10
35.84
 20
180.17
 30
0
 40
40.25
100
AcDbArc
 50
-130.789
 51
-71.7121
  0
LINE
  5
B01
330
A02
100
AcDbEntity
  8
PolarPattern002
100
AcDbLine
 10
9.5456
 20
149.696
 30
10
 11
9.5456
 21
149.696
 31
0
  0
ARC
  5
B02
330
A02
100
AcDbEntity
  8
PolarPattern002
100
AcDbCircle
 10
0
 20
0
 30
10
 40
150
100
AcDbArc
 50
108.851
 51
109.251
  0
LINE
  5
B03
330
A02
100
AcDbEntity
  8
PolarPattern002
100
AcDbLine
 10
-48.4672
 20
141.954
 30
10
 11
-48.4672
 21
141.954
 31
0
  0
ARC
  5
B04
330
A02
100
AcDbEntity
  8
PolarPattern002
100
AcDbCircle
 10
0
 20
0
 30
0
 40
150
100
AcDbArc
 50
108.851
 51
109.251
  0
LINE
  5
B05
330
A02
100
AcDbEntity
  8
PolarPattern002
100
AcDbLine
 10
-49.4573
 20
141.612
 30
10
 11
-49.4573
 21
141.612
 31
0
  0
ARC
  5
B06
330
A02
100
AcDbEntity
  8
PolarPattern002
100
AcDbCircle
 10
0
 20
0
 30
0
 40
150
100
AcDbArc
 50
70.7485
 51
71.1474
  0
LINE
  5
B07
330
A02
100
AcDbEntity
  8
PolarPattern002
100
AcDbLine
 10
48.4702
 20
141.953
 30
10
 11
48.4702
 21
141.953
 31
0
  0
ARC
  5
B08
330
A02
100
AcDbEntity
  8
PolarPattern002
100
AcDbCircle
 10
0
 20
0
 30
10
 40
150
100
AcDbArc
 50
70.7485
 51
71.1474
  0
LINE
  5
B09
330
A02
100
AcDbEntity
  8
PolarPattern002
100
AcDbLine
 10
49.4573
 20
141.612
 30
10
 11
49.4573
 21
141.612
 31
0
  0
LINE
  5
B0A
330
A02
100
AcDbEntity
  8
PolarPattern002
100
AcDbLine
 10
-39.9825
 20
118.738
 30
10
 11
-49.4573
 21
141.612
 31
10
  0
LINE
  5
B0B
330
A02
100
AcDbEntity
  8
PolarPattern002
100
AcDbLine
 10
-49.4573
 20
141.612
 30
10
 11
-49.4573
 21
141.612
 31
0
  0
LINE
  5
B0C
330
A02
100
AcDbEntity
  8
PolarPattern002
100
AcDbLine
 10
-39.9825
 20
118.738
 30
0
 11
-49.4573
 21
141.612
 31
0
  0
LINE
  5
B0D
330
A02
100
AcDbEntity
  8
PolarPattern002
100
AcDbLine
 10
-39.9825
 20
118.738
 30
10
 11
-39.9825
 21
118.738
 31
0
  0
LINE
  5
B0E
330
A02
100
AcDbEntity
  8
PolarPattern002
100
AcDbLine
 10
39.9825
 20
118.738
 30
10
 11
49.4573
 21
141.612
 31
10
  0
LINE
  5
B0F
330
A02
100
AcDbEntity
  8
PolarPattern002
100
AcDbLine
 10
49.4573
 20
141.612
 30
10
 11
49.4573
 21
141.612
 31
0
  0
LINE
  5
B10
330
A02
100
AcDbEntity
  8
PolarPattern002
100
AcDbLine
 10
39.9825
 20
118.738
 30
-8.9e-16
 11
49.4573
 21
141.612
 31
-8.9e-16
  0
LINE
  5
B11
330
A02
100
AcDbEntity
  8
PolarPattern002
100
AcDbLine
 10
39.9825
 20
118.738
 30
10
 11
39.9825
 21
118.738
 31
0
  0
ARC
  5
B12
330
A02
100
AcDbEntity
  8
PolarPattern002
100
AcDbCircle
 10
-47.8354
 20
115.485
 30
10
 40
8.5
100
AcDbArc
 50
-157.5
 51
22.5
  0
LINE
  5
B13
330
A02
100
AcDbEntity
  8
PolarPattern002
100
AcDbLine
 10
-39.9825
 20
118.738
 30
10
 11
-39.9825
 21
118.738
 31
0
  0
ARC
  5
B14
330
A02
100
AcDbEntity
  8
PolarPattern002
100
AcDbCircle
 10
-47.8354
 20
115.485
 30
0
 40
8.5
100
AcDbArc
 50
-157.5
 51
22.5
  0
LINE
  5
B15
330
A02
100
AcDbEntity
  8
PolarPattern002
100
AcDbLine
 10
-55.6884
 20
112.232
 30
10
 11
-55.6884
 21
112.232
 31
0
  0
ARC
  5
B16
330
A02
100
AcDbEntity
  8
PolarPattern002
100
AcDbCircle
 10
47.8354
 20
115.485
 30
10
 40
8.5
100
AcDbArc
 50
157.5
 51
-22.5
  0
LINE
  5
B17
330
A02
100
AcDbEntity
  8
PolarPattern002
100
AcDbLine
 10
55.6884
 20
112.232
 30
10
 11
55.6884
 21
112.232
 31
0
  0
ARC
  5
B18
330
A02
100
AcDbEntity
  8
PolarPattern002
100
AcDbCircle
 10
47.8354
 20
115.485
 30
0
 40
8.5
100
AcDbArc
 50
157.5
 51
-22.5
  0
LINE
  5
B19
330
A02
100
AcDbEntity
  8
PolarPattern002
100
AcDbLine
 10
39.9825
 20
118.738
 30
10
 11
39.9825
 21
118.738
 31
0
  0
LINE
  5
B1A
330
A02
100
AcDbEntity
  8
PolarPattern002
100
AcDbLine
 10
-55.6884
 20
112.232
 30
10
 11
-65.1633
 21
135.106
 31
10
  0
LINE
  5
B1B
330
A02
100
AcDbEntity
  8
PolarPattern002
100
AcDbLine
 10
-65.1633
 20
135.106
 30
10
 11
-65.1633
 21
135.106
 31
0
  0
LINE
  5
B1C
330
A02
100
AcDbEntity
  8
PolarPattern002
100
AcDbLine
 10
-55.6884
 20
112.232
 30
0
 11
-65.1633
 21
135.106
 31
0
  0
LINE
  5
B1D
330
A02
100
AcDbEntity
  8
PolarPattern002
100
AcDbLine
 10
-55.6884
 20
112.232
 30
10
 11
-55.6884
 21
112.232
 31
0
  0
LINE
  5
B1E
330
A02
100
AcDbEntity
  8
PolarPattern002
100
AcDbLine
 10
55.6884
 20
112.232
 30
10
 11
65.1633
 21
135.106
 31
10
  0
LINE
  5
B1F
330
A02
100
AcDbEntity
  8
PolarPattern002
100
AcDbLine
 10
65.1633
 20
135.106
 30
10
 11
65.1633
 21
135.106
 31
0
  0
LINE
  5
B20
330
A02
100
AcDbEntity
  8
PolarPattern002
100
AcDbLine
 10
55.6884
 20
112.232
 30
0
 11
65.1633
 21
135.106
 31
0
  0
LINE
  5
B21
330
A02
100
AcDbEntity
  8
PolarPattern002
100
AcDbLine
 10
55.6884
 20
112.232
 30
10
 11
55.6884
 21
112.232
 31
0
  0
ARC
  5
B22
330
A02
100
AcDbEntity
  8
PolarPattern002
100
AcDbCircle
 10
0
 20
0
 30
10
 40
150
100
AcDbArc
 50
115.749
 51
116.147
  0
LINE
  5
B23
330
A02
100
AcDbEntity
  8
PolarPattern002
100
AcDbLine
 10
-65.1633
 20
135.106
 30
10
 11
-65.1633
 21
135.106
 31
0
  0
ARC
  5
B24
330
A02
100
AcDbEntity
  8
PolarPattern002
100
AcDbCircle
 10
0
 20
0
 30
0
 40
150
100
AcDbArc
 50
115.749
 51
116.147
  0
LINE
  5
B25
330
A02
100
AcDbEntity
  8
PolarPattern002
100
AcDbLine
 10
-66.1023
 20
134.649
 30
10
 11
-66.1023
 21
134.649
 31
0
  0
ARC
  5
B26
330
A02
100
AcDbEntity
  8
PolarPattern002
100
AcDbCircle
 10
0
 20
0
 30
0
 40
150
100
AcDbArc
 50
63.8514
 51
64.2515
  0
LINE
  5
B27
330
A02
100
AcDbEntity
  8
PolarPattern002
100
AcDbLine
 10
65.1633
 20
135.106
 30
10
 11
65.1633
 21
135.106
 31
0
  0
ARC
  5
B28
330
A02
100
AcDbEntity
  8
PolarPattern002
100
AcDbCircle
 10
0
 20
0
 30
10
 40
150
100
AcDbArc
 50
63.8514
 51
64.2515
  0
LINE
  5
B29
330
A02
100
AcDbEntity
  8
PolarPattern002
100
AcDbLine
 10
66.1051
 20
134.648
 30
10
 11
66.1051
 21
134.648
 31
0
  0
ARC
  5
B2A
330
A02
100
AcDbEntity
  8
PolarPattern002
100
AcDbCircle
 10
-102.057
 20
152.742
 30
10
 40
40.25
100
AcDbArc
 50
-85.7891
 51
-26.7121
  0
LINE
  5
B2B
330
A02
100
AcDbEntity
  8
PolarPattern002
100
AcDbLine
 10
-66.1023
 20
134.649
 30
10
 11
-66.1023
 21
134.649
 31
0
  0
ARC
  5
B2C
330
A02
100
AcDbEntity
  8
PolarPattern002
100
AcDbCircle
 10
-102.057
 20
152.742
 30
0
 40
40.25
100
AcDbArc
 50
-85.7891
 51
-26.7121
  0
LINE
  5
B2D
330
A02
100
AcDbEntity
  8
PolarPattern002
100
AcDbLine
 10
-99.1013
 20
112.601
 30
10
 11
-99.1013
 21
112.601
 31
0
  0
ARC
  5
B2E
330
A02
100
AcDbEntity
  8
PolarPattern002
100
AcDbCircle
 10
102.06
 20
152.74
 30
10
 40
40.25
100
AcDbArc
 50
-153.289
 51
-94.2121
  0
LINE
  5
B2F
330
A02
100
AcDbEntity
  8
PolarPattern002
100
AcDbLine
 10
99.1036
 20
112.599
 30
10
 11
99.1036
 21
112.599
 31
0
  0
ARC
  5
B30
330
A02
100
AcDbEntity
  8
PolarPattern002
100
AcDbCircle
 10
102.06
 20
152.74
 30
0
 40
40.25
100
AcDbArc
 50
-153.289
 51
-94.2121
  0
LINE
  5
B31
330
A02
100
AcDbEntity
  8
PolarPattern002
100
AcDbLine
 10
66.1051
 20
134.648
 30
10
 11
66.1051
 21
134.648
 31
0
  0
ARC
  5
B32
330
A02
100
AcDbEntity
  8
PolarPattern002
100
AcDbCircle
 10
0
 20
0
 30
10
 40
150
100
AcDbArc
 50
131.351
 51
131.751
  0
LINE
  5
B33
330
A02
100
AcDbEntity
  8
PolarPattern002
100
AcDbLine
 10
-99.1013
 20
112.601
 30
10
 11
-99.1013
 21
112.601
 31
0
  0
ARC
  5
B34
330
A02
100
AcDbEntity
  8
PolarPattern002
100
AcDbCircle
 10
0
 20
0
 30
0
 40
150
100
AcDbArc
 50
131.351
 51
131.751
  0
LINE
  5
B35
330
A02
100
AcDbEntity
  8
PolarPattern002
100
AcDbLine
 10
-99.8852
 20
111.906
 30
10
 11
-99.8852
 21
111.906
 31
0
  0
ARC
  5
B36
330
A02
100
AcDbEntity
  8
PolarPattern002
100
AcDbCircle
 10
0
 20
0
 30
0
 40
150
100
AcDbArc
 50
48.2485
 51
48.6474
  0
LINE
  5
B37
330
A02
100
AcDbEntity
  8
PolarPattern002
100
AcDbLine
 10
99.1036
 20
112.599
 30
10
 11
99.1036
 21
112.599
 31
0
  0
ARC
  5
B38
330
A02
100
AcDbEntity
  8
PolarPattern002
100
AcDbCircle
 10
0
 20
0
 30
10
 40
150
100
AcDbArc
 50
48.2485
 51
48.6474
  0
LINE
  5
B39
330
A02
100
AcDbEntity
  8
PolarPattern002
100
AcDbLine
 10
99.8852
 20
111.906
 30
10
 11
99.8852
 21
111.906
 31
0
  0
LINE
  5
B3A
330
A02
100
AcDbEntity
  8
PolarPattern002
100
AcDbLine
 10
-82.3779
 20
94.3988
 30
10
 11
-99.8852
 21
111.906
 31
10
  0
LINE
  5
B3B
330
A02
100
AcDbEntity
  8
PolarPattern002
100
AcDbLine
 10
-99.8852
 20
111.906
 30
10
 11
-99.8852
 21
111.906
 31
0
  0
LINE
  5
B3C
330
A02
100
AcDbEntity
  8
PolarPattern002
100
AcDbLine
 10
-82.3779
 20
94.3988
 30
0
 11
-99.8852
 21
111.906
 31
0
  0
LINE
  5
B3D
330
A02
100
AcDbEntity
  8
PolarPattern002
100
AcDbLine
 10
-82.3779
 20
94.3988
 30
10
 11
-82.3779
 21
94.3988
 31
0
  0
LINE
  5
B3E
330
A02
100
AcDbEntity
  8
PolarPattern002
100
AcDbLine
 10
82.3779
 20
94.3988
 30
10
 11
99.8852
 21
111.906
 31
10
  0
LINE
  5
B3F
330
A02
100
AcDbEntity
  8
PolarPattern002
100
AcDbLine
 10
99.8852
 20
111.906
 30
10
 11
99.8852
 21
111.906
 31
0
  0
LINE
  5
B40
330
A02
100
AcDbEntity
  8
PolarPattern002
100
AcDbLine
 10
82.3779
 20
94.3988
 30
0
 11
99.8852
 21
111.906
 31
0
  0
LINE
  5
B41
330
A02
100
AcDbEntity
  8
PolarPattern002
100
AcDbLine
 10
82.3779
 20
94.3988
 30
10
 11
82.3779
 21
94.3988
 31
0
  0
ARC
  5
B42
330
A02
100
AcDbEntity
  8
PolarPattern002
100
AcDbCircle
 10
-88.3883
 20
88.3883
 30
10
 40
8.5
100
AcDbArc
 50
-135
 51
45
  0
LINE
  5
B43
330
A02
100
AcDbEntity
  8
PolarPattern002
100
AcDbLine
 10
-82.3779
 20
94.3988
 30
10
 11
-82.3779
 21
94.3988
 31
0
  0
ARC
  5
B44
330
A02
100
AcDbEntity
  8
PolarPattern002
100
AcDbCircle
 10
-88.3883
 20
88.3883
 30
0
 40
8.5
100
AcDbArc
 50
-135
 51
45
  0
LINE
  5
B45
330
A02
100
AcDbEntity
  8
PolarPattern002
100
AcDbLine
 10
-94.3988
 20
82.3779
 30
10
 11
-94.3988
 21
82.3779
 31
0
  0
ARC
  5
B46
330
A02
100
AcDbEntity
  8
PolarPattern002
100
AcDbCircle
 10
88.3883
 20
88.3883
 30
10
 40
8.5
100
AcDbArc
 50
135
 51
-45
  0
LINE
  5
B47
330
A02
100
AcDbEntity
  8
PolarPattern002
100
AcDbLine
 10
94.3988
 20
82.3779
 30
10
 11
94.3988
 21
82.3779
 31
0
  0
ARC
  5
B48
330
A02
100
AcDbEntity
  8
PolarPattern002
100
AcDbCircle
 10
88.3883
 20
88.3883
 30
0
 40
8.5
100
AcDbArc
 50
135
 51
-45
  0
LINE
  5
B49
330
A02
100
AcDbEntity
  8
PolarPattern002
100
AcDbLine
 10
82.3779
 20
94.3988
 30
10
 11
82.3779
 21
94.3988
 31
0
  0
LINE
  5
B4A
330
A02
100
AcDbEntity
  8
PolarPattern002
100
AcDbLine
 10
-94.3988
 20
82.3779
 30
10
 11
-111.906
 21
99.8852
 31
10
  0
LINE
  5
B4B
330
A02
100
AcDbEntity
  8
PolarPattern002
100
AcDbLine
 10
-111.906
 20
99.8852
 30
10
 11
-111.906
 21
99.8852
 31
0
  0
LINE
  5
B4C
330
A02
100
AcDbEntity
  8
PolarPattern002
100
AcDbLine
 10
-94.3988
 20
82.3779
 30
0
 11
-111.906
 21
99.8852
 31
0
  0
LINE
  5
B4D
330
A02
100
AcDbEntity
  8
PolarPattern002
100
AcDbLine
 10
-94.3988
 20
82.3779
 30
10
 11
-94.3988
 21
82.3779
 31
0
  0
LINE
  5
B4E
330
A02
100
AcDbEntity
  8
PolarPattern002
100
AcDbLine
 10
94.3988
 20
82.3779
 30
10
 11
111.906
 21
99.8852
 31
10
  0
LINE
  5
B4F
330
A02
100
AcDbEntity
  8
PolarPattern002
100
AcDbLine
 10
111.906
 20
99.8852
 30
10
 11
111.906
 21
99.8852
 31
0
  0
LINE
  5
B50
330
A02
100
AcDbEntity
  8
PolarPattern002
100
AcDbLine
 10
94.3988
 20
82.3779
 30
0
 11
111.906
 21
99.8852
 31
0
  0
LINE
  5
B51
330
A02
100
AcDbEntity
  8
PolarPattern002
100
AcDbLine
 10
94.3988
 20
82.3779
 30
10
 11
94.3988
 21
82.3779
 31
0
  0
ARC
  5
B52
330
A02
100
AcDbEntity
  8
PolarPattern002
100
AcDbCircle
 10
0
 20
0
 30
10
 40
150
100
AcDbArc
 50
138.249
 51
138.647
  0
LINE
  5
B53
330
A02
100
AcDbEntity
  8
PolarPattern002
100
AcDbLine
 10
-111.906
 20
99.8852
 30
10
 11
-111.906
 21
99.8852
 31
0
  0
ARC
  5
B54
330
A02
100
AcDbEntity
  8
PolarPattern002
100
AcDbCircle
 10
0
 20
0
 30
0
 40
150
100
AcDbArc
 50
138.249
 51
138.647
  0
LINE
  5
B55
330
A02
100
AcDbEntity
  8
PolarPattern002
100
AcDbLine
 10
-112.599
 20
99.1036
 30
10
 11
-112.599
 21
99.1036
 31
0
  0
ARC
  5
B56
330
A02
100
AcDbEntity
  8
PolarPattern002
100
AcDbCircle
 10
0
 20
0
 30
0
 40
150
100
AcDbArc
 50
41.3514
 51
41.7515
  0
LINE
  5
B57
330
A02
100
AcDbEntity
  8
PolarPattern002
100
AcDbLine
 10
111.906
 20
99.8852
 30
10
 11
111.906
 21
99.8852
 31
0
  0
ARC
  5
B58
330
A02
100
AcDbEntity
  8
PolarPattern002
100
AcDbCircle
 10
0
 20
0
 30
10
 40
150
100
AcDbArc
 50
41.3514
 51
41.7515
  0
LINE
  5
B59
330
A02
100
AcDbEntity
  8
PolarPattern002
100
AcDbLine
 10
112.601
 20
99.1013
 30
10
 11
112.601
 21
99.1013
 31
0
  0
ARC
  5
B5A
330
A02
100
AcDbEntity
  8
PolarPattern002
100
AcDbCircle
 10
-152.74
 20
102.06
 30
10
 40
40.25
100
AcDbArc
 50
-63.2891
 51
-4.21206
  0
LINE
  5
B5B
330
A02
100
AcDbEntity
  8
PolarPattern002
100
AcDbLine
 10
-112.599
 20
99.1036
 30
10
 11
-112.599
 21
99.1036
 31
0
  0
ARC
  5
B5C
330
A02
100
AcDbEntity
  8
PolarPattern002
100
AcDbCircle
 10
-152.74
 20
102.06
 30
0
 40
40.25
100
AcDbArc
 50
-63.2891
 51
-4.21206
  0
LINE
  5
B5D
330
A02
100
AcDbEntity
  8
PolarPattern002
100
AcDbLine
 10
-134.648
 20
66.1051
 30
10
 11
-134.648
 21
66.1051
 31
0
  0
ARC
  5
B5E
330
A02
100
AcDbEntity
  8
PolarPattern002
100
AcDbCircle
 10
152.742
 20
102.057
 30
10
 40
40.25
100
AcDbArc
 50
-175.789
 51
-116.712
  0
LINE
  5
B5F
330
A02
100
AcDbEntity
  8
PolarPattern002
100
AcDbLine
 10
134.649
 20
66.1023
 30
10
 11
134.649
 21
66.1023
 31
0
  0
ARC
  5
B60
330
A02
100
AcDbEntity
  8
PolarPattern002
100
AcDbCircle
 10
152.742
 20
102.057
 30
0
 40
40.25
100
AcDbArc
 50
-175.789
 51
-116.712
  0
LINE
  5
B61
330
A02
100
AcDbEntity
  8
PolarPattern002
100
AcDbLine
 10
112.601
 20
99.1013
 30
10
 11
112.601
 21
99.1013
 31
0
  0
ARC
  5
B62
330
A02
100
AcDbEntity
  8
PolarPattern002
100
AcDbCircle
 10
0
 20
0
 30
10
 40
150
100
AcDbArc
 50
153.851
 51
154.251
  0
LINE
  5
B63
330
A02
100
AcDbEntity
  8
PolarPattern002
100
AcDbLine
 10
-134.648
 20
66.1051
 30
10
 11
-134.648
 21
66.1051
 31
0
  0
ARC
  5
B64
330
A02
100
AcDbEntity
  8
PolarPattern002
100
AcDbCircle
 10
0
 20
0
 30
0
 40
150
100
AcDbArc
 50
153.851
 51
154.251
  0
LINE
  5
B65
330
A02
100
AcDbEntity
  8
PolarPattern002
100
AcDbLine
 10
-135.106
 20
65.1633
 30
10
 11
-135.106
 21
65.1633
 31
0
  0
ARC
  5
B66
330
A02
100
AcDbEntity
  8
PolarPattern002
100
AcDbCircle
 10
0
 20
0
 30
0
 40
150
100
AcDbArc
 50
25.7485
 51
26.1474
  0
LINE
  5
B67
330
A02
100
AcDbEntity
  8
PolarPattern002
100
AcDbLine
 10
134.649
 20
66.1023
 30
10
 11
134.649
 21
66.1023
 31
0
  0
ARC
  5
B68
330
A02
100
AcDbEntity
  8
PolarPattern002
100
AcDbCircle
 10
0
 20
0
 30
10
 40
150
100
AcDbArc
 50
25.7485
 51
26.1474
  0
LINE
  5
B69
330
A02
100
AcDbEntity
  8
PolarPattern002
100
AcDbLine
 10
135.106
 20
65.1633
 30
10
 11
135.106
 21
65.1633
 31
0
  0
LINE
  5
B6A
330
A02
100
AcDbEntity
  8
PolarPattern002
100
AcDbLine
 10
-112.232
 20
55.6884
 30
10
 11
-135.106
 21
65.1633
 31
10
  0
LINE
  5
B6B
330
A02
100
AcDbEntity
  8
PolarPattern002
100
AcDbLine
 10
-135.106
 20
65.1633
 30
10
 11
-135.106
 21
65.1633
 31
0
  0
LINE
  5
B6C
330
A02
100
AcDbEntity
  8
PolarPattern002
100
AcDbLine
 10
-112.232
 20
55.6884
 30
0
 11
-135.106
 21
65.1633
 31
0
  0
LINE
  5
B6D
330
A02
100
AcDbEntity
  8
PolarPattern002
100
AcDbLine
 10
-112.232
 20
55.6884
 30
10
 11
-112.232
 21
55.6884
 31
0
  0
LINE
  5
B6E
330
A02
100
AcDbEntity
  8
PolarPattern002
100
AcDbLine
 10
112.232
 20
55.6884
 30
10
 11
135.106
 21
65.1633
 31
10
  0
LINE
  5
B6F
330
A02
100
AcDbEntity
  8
PolarPattern002
100
AcDbLine
 10
135.106
 20
65.1633
 30
10
 11
135.106
 21
65.1633
 31
0
  0
LINE
  5
B70
330
A02
100
AcDbEntity
  8
PolarPattern002
100
AcDbLine
 10
112.232
 20
55.6884
 30
0
 11
135.106
 21
65.1633
 31
0
  0
LINE
  5
B71
330
A02
100
AcDbEntity
  8
PolarPattern002
100
AcDbLine
 10
112.232
 20
55.6884
 30
10
 11
112.232
 21
55.6884
 31
0
  0
ARC
  5
B72
330
A02
100
AcDbEntity
  8
PolarPattern002
100
AcDbCircle
 10
-115.485
 20
47.8354
 30
10
 40
8.5
100
AcDbArc
 50
-112.5
 51
67.5
  0
LINE
  5
B73
330
A02
100
AcDbEntity
  8
PolarPattern002
100
AcDbLine
 10
-112.232
 20
55.6884
 30
10
 11
-112.232
 21
55.6884
 31
0
  0
ARC
  5
B74
330
A02
100
AcDbEntity
  8
PolarPattern002
100
AcDbCircle
 10
-115.485
 20
47.8354
 30
0
 40
8.5
100
AcDbArc
 50
-112.5
 51
67.5
  0
LINE
  5
B75
330
A02
100
AcDbEntity
  8
PolarPattern002
100
AcDbLine
 10
-118.738
 20
39.9825
 30
10
 11
-118.738
 21
39.9825
 31
0
  0
ARC
  5
B76
330
A02
100
AcDbEntity
  8
PolarPattern002
100
AcDbCircle
 10
115.485
 20
47.8354
 30
10
 40
8.5
100
AcDbArc
 50
112.5
 51
-67.5
  0
LINE
  5
B77
330
A02
100
AcDbEntity
  8
PolarPattern002
100
AcDbLine
 10
118.738
 20
39.9825
 30
10
 11
118.738
 21
39.9825
 31
0
  0
ARC
  5
B78
330
A02
100
AcDbEntity
  8
PolarPattern002
100
AcDbCircle
 10
115.485
 20
47.8354
 30
0
 40
8.5
100
AcDbArc
 50
112.5
 51
-67.5
  0
LINE
  5
B79
330
A02
100
AcDbEntity
  8
PolarPattern002
100
AcDbLine
 10
112.232
 20
55.6884
 30
10
 11
112.232
 21
55.6884
 31
0
  0
LINE
  5
B7A
330
A02
100
AcDbEntity
  8
PolarPattern002
100
AcDbLine
 10
-118.738
 20
39.9825
 30
10
 11
-141.612
 21
49.4573
 31
10
  0
LINE
  5
B7B
330
A02
100
AcDbEntity
  8
PolarPattern002
100
AcDbLine
 10
-141.612
 20
49.4573
 30
10
 11
-141.612
 21
49.4573
 31
0
  0
LINE
  5
B7C
330
A02
100
AcDbEntity
  8
PolarPattern002
100
AcDbLine
 10
-118.738
 20
39.9825
 30
0
 11
-141.612
 21
49.4573
 31
0
  0
LINE
  5
B7D
330
A02
100
AcDbEntity
  8
PolarPattern002
100
AcDbLine
 10
-118.738
 20
39.9825
 30
10
 11
-118.738
 21
39.9825
 31
0
  0
LINE
  5
B7E
330
A02
100
AcDbEntity
  8
PolarPattern002
100
AcDbLine
 10
118.738
 20
39.9825
 30
10
 11
141.612
 21
49.4573
 31
10
  0
LINE
  5
B7F
330
A02
100
AcDbEntity
  8
PolarPattern002
100
AcDbLine
 10
141.612
 20
49.4573
 30
10
 11
141.612
 21
49.4573
 31
0
  0
LINE
  5
B80
330
A02
100
AcDbEntity
  8
PolarPattern002
100
AcDbLine
 10
118.738
 20
39.9825
 30
0
 11
141.612
 21
49.4573
 31
0
  0
LINE
  5
B81
330
A02
100
AcDbEntity
  8
PolarPattern002
100
AcDbLine
 10
118.738
 20
39.9825
 30
10
 11
118.738
 21
39.9825
 31
0
  0
ARC
  5
B82
330
A02
100
AcDbEntity
  8
PolarPattern002
100
AcDbCircle
 10
0
 20
0
 30
10
 40
150
100
AcDbArc
 50
160.749
 51
161.147
  0
LINE
  5
B83
330
A02
100
AcDbEntity
  8
PolarPattern002
100
AcDbLine
 10
-141.612
 20
49.4573
 30
10
 11
-141.612
 21
49.4573
 31
0
  0
ARC
  5
B84
330
A02
100
AcDbEntity
  8
PolarPattern002
100
AcDbCircle
 10
0
 20
0
 30
0
 40
150
100
AcDbArc
 50
160.749
 51
161.147
  0
LINE
  5
B85
330
A02
100
AcDbEntity
  8
PolarPattern002
100
AcDbLine
 10
-141.953
 20
48.4702
 30
10
 11
-141.953
 21
48.4702
 31
0
  0
ARC
  5
B86
330
A02
100
AcDbEntity
  8
PolarPattern002
100
AcDbCircle
 10
0
 20
0
 30
0
 40
150
100
AcDbArc
 50
18.8514
 51
19.2515
  0
LINE
  5
B87
330
A02
100
AcDbEntity
  8
PolarPattern002
100
AcDbLine
 10
141.612
 20
49.4573
 30
10
 11
141.612
 21
49.4573
 31
0
  0
ARC
  5
B88
330
A02
100
AcDbEntity
  8
PolarPattern002
100
AcDbCircle
 10
0
 20
0
 30
10
 40
150
100
AcDbArc
 50
18.8514
 51
19.2515
  0
LINE
  5
B89
330
A02
100
AcDbEntity
  8
PolarPattern002
100
AcDbLine
 10
141.954
 20
48.4672
 30
10
 11
141.954
 21
48.4672
 31
0
  0
ARC
  5
B8A
330
A02
100
AcDbEntity
  8
PolarPattern002
100
AcDbCircle
 10
-180.17
 20
35.84
 30
10
 40
40.25
100
AcDbArc
 50
-40.7891
 51
18.2879
  0
LINE
  5
B8B
330
A02
100
AcDbEntity
  8
PolarPattern002
100
AcDbLine
 10
-141.953
 20
48.4702
 30
10
 11
-141.953
 21
48.4702
 31
0
  0
ARC
  5
B8C
330
A02
100
AcDbEntity
  8
PolarPattern002
100
AcDbCircle
 10
-180.17
 20
35.84
 30
0
 40
40.25
100
AcDbArc
 50
-40.7891
 51
18.2879
  0
LINE
  5
B8D
330
A02
100
AcDbEntity
  8
PolarPattern002
100
AcDbLine
 10
-149.696
 20
9.5456
 30
10
 11
-149.696
 21
9.5456
 31
0
  0
ARC
  5
B8E
330
A02
100
AcDbEntity
  8
PolarPattern002
100
AcDbCircle
 10
0
 20
0
 30
10
 40
150
100
AcDbArc
 50
176.351
 51
176.751
  0
LINE
  5
B8F
330
A02
100
AcDbEntity
  8
PolarPattern002
100
AcDbLine
 10
-149.696
 20
9.5456
 30
10
 11
-149.696
 21
9.5456
 31
0
  0
ARC
  5
B90
330
A02
100
AcDbEntity
  8
PolarPattern002
100
AcDbCircle
 10
0
 20
0
 30
0
 40
150
100
AcDbArc
 50
176.351
 51
176.751
  0
LINE
  5
B91
330
A02
100
AcDbEntity
  8
PolarPattern002
100
AcDbLine
 10
-149.759
 20
8.5
 30
10
 11
-149.759
 21
8.5
 31
0
  0
LINE
  5
B92
330
A02
100
AcDbEntity
  8
PolarPattern002
100
AcDbLine
 10
-125
 20
8.5
 30
10
 11
-149.759
 21
8.5
 31
10
  0
LINE
  5
B93
330
A02
100
AcDbEntity
  8
PolarPattern002
100
AcDbLine
 10
-149.759
 20
8.5
 30
10
 11
-149.759
 21
8.5
 31
0
  0
LINE
  5
B94
330
A02
100
AcDbEntity
  8
PolarPattern002
100
AcDbLine
 10
-125
 20
8.5
 30
0
 11
-149.759
 21
8.5
 31
0
  0
LINE
  5
B95
330
A02
100
AcDbEntity
  8
PolarPattern002
100
AcDbLine
 10
-125
 20
8.5
 30
10
 11
-125
 21
8.5
 31
0
  0
ARC
  5
B96
330
A02
100
AcDbEntity
  8
PolarPattern002
100
AcDbCircle
 10
-125
 20
0
 30
10
 40
8.5
100
AcDbArc
 50
-90
 51
90
  0
LINE
  5
B97
330
A02
100
AcDbEntity
  8
PolarPattern002
100
AcDbLine
 10
-125
 20
8.5
 30
10
 11
-125
 21
8.5
 31
0
  0
ARC
  5
B98
330
A02
100
AcDbEntity
  8
PolarPattern002
100
AcDbCircle
 10
-125
 20
1.388e-14
 30
0
 40
8.5
100
AcDbArc
 50
-90
 51
90
  0
LINE
  5
B99
330
A02
100
AcDbEntity
  8
PolarPattern002
100
AcDbLine
 10
-125
 20
-8.5
 30
10
 11
-125
 21
-8.5
 31
0
  0
ARC
  5
B9A
330
A02
100
AcDbEntity
  8
PolarPattern002
100
AcDbCircle
 10
125
 20
0
 30
10
 40
8.5
100
AcDbArc
 50
90
 51
-90
  0
LINE
  5
B9B
330
A02
100
AcDbEntity
  8
PolarPattern002
100
AcDbLine
 10
125
 20
-8.5
 30
10
 11
125
 21
-8.5
 31
0
  0
ARC
  5
B9C
330
A02
100
AcDbEntity
  8
PolarPattern002
100
AcDbCircle
 10
125
 20
-2.776e-14
 30
0
 40
8.5
100
AcDbArc
 50
90
 51
-90
  0
LINE
  5
B9D
330
A02
100
AcDbEntity
  8
PolarPattern002
100
AcDbLine
 10
125
 20
8.5
 30
10
 11
125
 21
8.5
 31
0
  0
LINE
  5
B9E
330
A02
100
AcDbEntity
  8
PolarPattern002
100
AcDbLine
 10
-125
 20
-8.5
 30
10
 11
-149.759
 21
-8.5
 31
10
  0
LINE
  5
B9F
330
A02
100
AcDbEntity
  8
PolarPattern002
100
AcDbLine
 10
-149.759
 20
-8.5
 30
10
 11
-149.759
 21
-8.5
 31
0
  0
LINE
  5
BA0
330
A02
100
AcDbEntity
  8
PolarPattern002
100
AcDbLine
 10
-125
 20
-8.5
 30
0
 11
-149.759
 21
-8.5
 31
0
  0
LINE
  5
BA1
330
A02
100
AcDbEntity
  8
PolarPattern002
100
AcDbLine
 10
-125
 20
-8.5
 30
10
 11
-125
 21
-8.5
 31
0
  0
LINE
  5
BA2
330
A02
100
AcDbEntity
  8
PolarPattern002
100
AcDbLine
 10
125
 20
-8.5
 30
10
 11
149.759
 21
-8.5
 31
10
  0
LINE
  5
BA3
330
A02
100
AcDbEntity
  8
PolarPattern002
100
AcDbLine
 10
149.759
 20
-8.5
 30
10
 11
149.759
 21
-8.5
 31
0
  0
LINE
  5
BA4
330
A02
100
AcDbEntity
  8
PolarPattern002
100
AcDbLine
 10
125
 20
-8.5
 30
0
 11
149.759
 21
-8.5
 31
0
  0
LINE
  5
BA5
330
A02
100
AcDbEntity
  8
PolarPattern002
100
AcDbLine
 10
125
 20
-8.5
 30
10
 11
125
 21
-8.5
 31
0
  0
ARC
  5
BA6
330
A02
100
AcDbEntity
  8
PolarPattern002
100
AcDbCircle
 10
0
 20
0
 30
10
 40
150
100
AcDbArc
 50
-176.751
 51
-176.353
  0
LINE
  5
BA7
330
A02
100
AcDbEntity
  8
PolarPattern002
100
AcDbLine
 10
-149.759
 20
-8.5
 30
10
 11
-149.759
 21
-8.5
 31
0
  0
ARC
  5
BA8
330
A02
100
AcDbEntity
  8
PolarPattern002
100
AcDbCircle
 10
0
 20
0
 30
0
 40
150
100
AcDbArc
 50
-176.751
 51
-176.353
  0
LINE
  5
BA9
330
A02
100
AcDbEntity
  8
PolarPattern002
100
AcDbLine
 10
-149.696
 20
-9.54247
 30
10
 11
-149.696
 21
-9.54247
 31
0
  0
ARC
  5
BAA
330
A02
100
AcDbEntity
  8
PolarPattern002
100
AcDbCircle
 10
0
 20
0
 30
10
 40
150
100
AcDbArc
 50
-3.64862
 51
-3.2485
  0
LINE
  5
BAB
330
A02
100
AcDbEntity
  8
PolarPattern002
100
AcDbLine
 10
149.696
 20
-9.5456
 30
10
 11
149.696
 21
-9.5456
 31
0
  0
ARC
  5
BAC
330
A02
100
AcDbEntity
  8
PolarPattern002
100
AcDbCircle
 10
0
 20
0
 30
0
 40
150
100
AcDbArc
 50
-3.64862
 51
-3.2485
  0
LINE
  5
BAD
330
A02
100
AcDbEntity
  8
PolarPattern002
100
AcDbLine
 10
149.759
 20
-8.5
 30
10
 11
149.759
 21
-8.5
 31
0
  0
ARC
  5
BAE
330
A02
100
AcDbEntity
  8
PolarPattern002
100
AcDbCircle
 10
-180.171
 20
-35.8362
 30
10
 40
40.25
100
AcDbArc
 50
-18.2891
 51
40.7879
  0
LINE
  5
BAF
330
A02
100
AcDbEntity
  8
PolarPattern002
100
AcDbLine
 10
-149.696
 20
-9.54247
 30
10
 11
-149.696
 21
-9.54247
 31
0
  0
ARC
  5
BB0
330
A02
100
AcDbEntity
  8
PolarPattern002
100
AcDbCircle
 10
-180.171
 20
-35.8362
 30
0
 40
40.25
100
AcDbArc
 50
-18.2891
 51
40.7879
  0
LINE
  5
BB1
330
A02
100
AcDbEntity
  8
PolarPattern002
100
AcDbLine
 10
-141.954
 20
-48.4672
 30
10
 11
-141.954
 21
-48.4672
 31
0
  0
ARC
  5
BB2
330
A02
100
AcDbEntity
  8
PolarPattern002
100
AcDbCircle
 10
180.17
 20
-35.84
 30
10
 40
40.25
100
AcDbArc
 50
139.211
 51
-161.712
  0
LINE
  5
BB3
330
A02
100
AcDbEntity
  8
PolarPattern002
100
AcDbLine
 10
141.953
 20
-48.4702
 30
10
 11
141.953
 21
-48.4702
 31
0
  0
ARC
  5
BB4
330
A02
100
AcDbEntity
  8
PolarPattern002
100
AcDbCircle
 10
180.17
 20
-35.84
 30
0
 40
40.25
100
AcDbArc
 50
139.211
 51
-161.712
  0
LINE
  5
BB5
330
A02
100
AcDbEntity
  8
PolarPattern002
100
AcDbLine
 10
149.696
 20
-9.5456
 30
10
 11
149.696
 21
-9.5456
 31
0
  0
ARC
  5
BB6
330
A02
100
AcDbEntity
  8
PolarPattern002
100
AcDbCircle
 10
0
 20
0
 30
10
 40
150
100
AcDbArc
 50
-161.149
 51
-160.749
  0
LINE
  5
BB7
330
A02
100
AcDbEntity
  8
PolarPattern002
100
AcDbLine
 10
-141.954
 20
-48.4672
 30
10
 11
-141.954
 21
-48.4672
 31
0
  0
ARC
  5
BB8
330
A02
100
AcDbEntity
  8
PolarPattern002
100
AcDbCircle
 10
0
 20
0
 30
0
 40
150
100
AcDbArc
 50
-161.149
 51
-160.749
  0
LINE
  5
BB9
330
A02
100
AcDbEntity
  8
PolarPattern002
100
AcDbLine
 10
-141.612
 20
-49.4573
 30
10
 11
-141.612
 21
-49.4573
 31
0
  0
ARC
  5
BBA
330
A02
100
AcDbEntity
  8
PolarPattern002
100
AcDbCircle
 10
0
 20
0
 30
10
 40
150
100
AcDbArc
 50
-19.2515
 51
-18.8526
  0
LINE
  5
BBB
330
A02
100
AcDbEntity
  8
PolarPattern002
100
AcDbLine
 10
141.612
 20
-49.4573
 30
10
 11
141.612
 21
-49.4573
 31
0
  0
ARC
  5
BBC
330
A02
100
AcDbEntity
  8
PolarPattern002
100
AcDbCircle
 10
0
 20
0
 30
0
 40
150
100
AcDbArc
 50
-19.2515
 51
-18.8526
  0
LINE
  5
BBD
330
A02
100
AcDbEntity
  8
PolarPattern002
100
AcDbLine
 10
141.953
 20
-48.4702
 30
10
 11
141.953
 21
-48.4702
 31
0
  0
LINE
  5
BBE
330
A02
100
AcDbEntity
  8
PolarPattern002
100
AcDbLine
 10
-118.738
 20
-39.9825
 30
10
 11
-141.612
 21
-49.4573
 31
10
  0
LINE
  5
BBF
330
A02
100
AcDbEntity
  8
PolarPattern002
100
AcDbLine
 10
-141.612
 20
-49.4573
 30
10
 11
-141.612
 21
-49.4573
 31
0
  0
LINE
  5
BC0
330
A02
100
AcDbEntity
  8
PolarPattern002
100
AcDbLine
 10
-118.738
 20
-39.9825
 30
0
 11
-141.612
 21
-49.4573
 31
0
  0
LINE
  5
BC1
330
A02
100
AcDbEntity
  8
PolarPattern002
100
AcDbLine
 10
-118.738
 20
-39.9825
 30
10
 11
-118.738
 21
-39.9825
 31
0
  0
LINE
  5
BC2
330
A02
100
AcDbEntity
  8
PolarPattern002
100
AcDbLine
 10
118.738
 20
-39.9825
 30
10
 11
141.612
 21
-49.4573
 31
10
  0
LINE
  5
BC3
330
A02
100
AcDbEntity
  8
PolarPattern002
100
AcDbLine
 10
141.612
 20
-49.4573
 30
10
 11
141.612
 21
-49.4573
 31
0
  0
LINE
  5
BC4
330
A02
100
AcDbEntity
  8
PolarPattern002
100
AcDbLine
 10
118.738
 20
-39.9825
 30
0
 11
141.612
 21
-49.4573
 31
0
  0
LINE
  5
BC5
330
A02
100
AcDbEntity
  8
PolarPattern002
100
AcDbLine
 10
118.738
 20
-39.9825
 30
10
 11
118.738
 21
-39.9825
 31
0
  0
ARC
  5
BC6
330
A02
100
AcDbEntity
  8
PolarPattern002
100
AcDbCircle
 10
-115.485
 20
-47.8354
 30
10
 40
8.5
100
AcDbArc
 50
-67.5
 51
112.5
  0
LINE
  5
BC7
330
A02
100
AcDbEntity
  8
PolarPattern002
100
AcDbLine
 10
-118.738
 20
-39.9825
 30
10
 11
-118.738
 21
-39.9825
 31
0
  0
ARC
  5
BC8
330
A02
100
AcDbEntity
  8
PolarPattern002
100
AcDbCircle
 10
-115.485
 20
-47.8354
 30
0
 40
8.5
100
AcDbArc
 50
-67.5
 51
112.5
  0
LINE
  5
BC9
330
A02
100
AcDbEntity
  8
PolarPattern002
100
AcDbLine
 10
-112.232
 20
-55.6884
 30
10
 11
-112.232
 21
-55.6884
 31
0
  0
ARC
  5
BCA
330
A02
100
AcDbEntity
  8
PolarPattern002
100
AcDbCircle
 10
115.485
 20
-47.8354
 30
10
 40
8.5
100
AcDbArc
 50
67.5
 51
-112.5
  0
LINE
  5
BCB
330
A02
100
AcDbEntity
  8
PolarPattern002
100
AcDbLine
 10
112.232
 20
-55.6884
 30
10
 11
112.232
 21
-55.6884
 31
0
  0
ARC
  5
BCC
330
A02
100
AcDbEntity
  8
PolarPattern002
100
AcDbCircle
 10
115.485
 20
-47.8354
 30
0
 40
8.5
100
AcDbArc
 50
67.5
 51
-112.5
  0
LINE
  5
BCD
330
A02
100
AcDbEntity
  8
PolarPattern002
100
AcDbLine
 10
118.738
 20
-39.9825
 30
10
 11
118.738
 21
-39.9825
 31
0
  0
LINE
  5
BCE
330
A02
100
AcDbEntity
  8
PolarPattern002
100
AcDbLine
 10
-112.232
 20
-55.6884
 30
10
 11
-135.106
 21
-65.1633
 31
10
  0
LINE
  5
BCF
330
A02
100
AcDbEntity
  8
PolarPattern002
100
AcDbLine
 10
-135.106
 20
-65.1633
 30
10
 11
-135.106
 21
-65.1633
 31
0
  0
LINE
  5
BD0
330
A02
100
AcDbEntity
  8
PolarPattern002
100
AcDbLine
 10
-112.232
 20
-55.6884
 30
0
 11
-135.106
 21
-65.1633
 31
0
  0
LINE
  5
BD1
330
A02
100
AcDbEntity
  8
PolarPattern002
100
AcDbLine
 10
-112.232
 20
-55.6884
 30
10
 11
-112.232
 21
-55.6884
 31
0
  0
LINE
  5
BD2
330
A02
100
AcDbEntity
  8
PolarPattern002
100
AcDbLine
 10
112.232
 20
-55.6884
 30
10
 11
135.106
 21
-65.1633
 31
10
  0
LINE
  5
BD3
330
A02
100
AcDbEntity
  8
PolarPattern002
100
AcDbLine
 10
135.106
 20
-65.1633
 30
10
 11
135.106
 21
-65.1633
 31
0
  0
LINE
  5
BD4
330
A02
100
AcDbEntity
  8
PolarPattern002
100
AcDbLine
 10
112.232
 20
-55.6884
 30
-8.9e-16
 11
135.106
 21
-65.1633
 31
-8.9e-16
  0
LINE
  5
BD5
330
A02
100
AcDbEntity
  8
PolarPattern002
100
AcDbLine
 10
112.232
 20
-55.6884
 30
10
 11
112.232
 21
-55.6884
 31
0
  0
ARC
  5
BD6
330
A02
100
AcDbEntity
  8
PolarPattern002
100
AcDbCircle
 10
0
 20
0
 30
10
 40
150
100
AcDbArc
 50
-154.251
 51
-153.853
  0
LINE
  5
BD7
330
A02
100
AcDbEntity
  8
PolarPattern002
100
AcDbLine
 10
-135.106
 20
-65.1633
 30
10
 11
-135.106
 21
-65.1633
 31
0
  0
ARC
  5
BD8
330
A02
100
AcDbEntity
  8
PolarPattern002
100
AcDbCircle
 10
0
 20
0
 30
0
 40
150
100
AcDbArc
 50
-154.251
 51
-153.853
  0
LINE
  5
BD9
330
A02
100
AcDbEntity
  8
PolarPattern002
100
AcDbLine
 10
-134.649
 20
-66.1023
 30
10
 11
-134.649
 21
-66.1023
 31
0
  0
ARC
  5
BDA
330
A02
100
AcDbEntity
  8
PolarPattern002
100
AcDbCircle
 10
0
 20
0
 30
10
 40
150
100
AcDbArc
 50
-26.1486
 51
-25.7485
  0
LINE
  5
BDB
330
A02
100
AcDbEntity
  8
PolarPattern002
100
AcDbLine
 10
134.648
 20
-66.1051
 30
10
 11
134.648
 21
-66.1051
 31
0
  0
ARC
  5
BDC
330
A02
100
AcDbEntity
  8
PolarPattern002
100
AcDbCircle
 10
0
 20
0
 30
0
 40
150
100
AcDbArc
 50
-26.1486
 51
-25.7485
  0
LINE
  5
BDD
330
A02
100
AcDbEntity
  8
PolarPattern002
100
AcDbLine
 10
135.106
 20
-65.1633
 30
10
 11
135.106
 21
-65.1633
 31
0
  0
ARC
  5
BDE
330
A02
100
AcDbEntity
  8
PolarPattern002
100
AcDbCircle
 10
-152.742
 20
-102.057
 30
10
 40
40.25
100
AcDbArc
 50
4.21086
 51
63.2879
  0
LINE
  5
BDF
330
A02
100
AcDbEntity
  8
PolarPattern002
100
AcDbLine
 10
-134.649
 20
-66.1023
 30
10
 11
-134.649
 21
-66.1023
 31
0
  0
ARC
  5
BE0
330
A02
100
AcDbEntity
  8
PolarPattern002
100
AcDbCircle
 10
-152.742
 20
-102.057
 30
0
 40
40.25
100
AcDbArc
 50
4.21086
 51
63.2879
  0
LINE
  5
BE1
330
A02
100
AcDbEntity
  8
PolarPattern002
100
AcDbLine
 10
-112.601
 20
-99.1013
 30
10
 11
-112.601
 21
-99.1013
 31
0
  0
ARC
  5
BE2
330
A02
100
AcDbEntity
  8
PolarPattern002
100
AcDbCircle
 10
152.74
 20
-102.06
 30
10
 40
40.25
100
AcDbArc
 50
116.711
 51
175.788
  0
LINE
  5
BE3
330
A02
100
AcDbEntity
  8
PolarPattern002
100
AcDbLine
 10
112.599
 20
-99.1036
 30
10
 11
112.599
 21
-99.1036
 31
0
  0
ARC
  5
BE4
330
A02
100
AcDbEntity
  8
PolarPattern002
100
AcDbCircle
 10
152.74
 20
-102.06
 30
0
 40
40.25
100
AcDbArc
 50
116.711
 51
175.788
  0
LINE
  5
BE5
330
A02
100
AcDbEntity
  8
PolarPattern002
100
AcDbLine
 10
134.648
 20
-66.1051
 30
10
 11
134.648
 21
-66.1051
 31
0
  0
ARC
  5
BE6
330
A02
100
AcDbEntity
  8
PolarPattern002
100
AcDbCircle
 10
0
 20
0
 30
10
 40
150
100
AcDbArc
 50
-138.649
 51
-138.249
  0
LINE
  5
BE7
330
A02
100
AcDbEntity
  8
PolarPattern002
100
AcDbLine
 10
-112.601
 20
-99.1013
 30
10
 11
-112.601
 21
-99.1013
 31
0
  0
ARC
  5
BE8
330
A02
100
AcDbEntity
  8
PolarPattern002
100
AcDbCircle
 10
0
 20
0
 30
0
 40
150
100
AcDbArc
 50
-138.649
 51
-138.249
  0
LINE
  5
BE9
330
A02
100
AcDbEntity
  8
PolarPattern002
100
AcDbLine
 10
-111.906
 20
-99.8852
 30
10
 11
-111.906
 21
-99.8852
 31
0
  0
ARC
  5
BEA
330
A02
100
AcDbEntity
  8
PolarPattern002
100
AcDbCircle
 10
0
 20
0
 30
10
 40
150
100
AcDbArc
 50
-41.7515
 51
-41.3526
  0
LINE
  5
BEB
330
A02
100
AcDbEntity
  8
PolarPattern002
100
AcDbLine
 10
111.906
 20
-99.8852
 30
10
 11
111.906
 21
-99.8852
 31
0
  0
ARC
  5
BEC
330
A02
100
AcDbEntity
  8
PolarPattern002
100
AcDbCircle
 10
0
 20
0
 30
0
 40
150
100
AcDbArc
 50
-41.7515
 51
-41.3526
  0
LINE
  5
BED
330
A02
100
AcDbEntity
  8
PolarPattern002
100
AcDbLine
 10
112.599
 20
-99.1036
 30
10
 11
112.599
 21
-99.1036
 31
0
  0
LINE
  5
BEE
330
A02
100
AcDbEntity
  8
PolarPattern002
100
AcDbLine
 10
-94.3988
 20
-82.3779
 30
10
 11
-111.906
 21
-99.8852
 31
10
  0
LINE
  5
BEF
330
A02
100
AcDbEntity
  8
PolarPattern002
100
AcDbLine
 10
-111.906
 20
-99.8852
 30
10
 11
-111.906
 21
-99.8852
 31
0
  0
LINE
  5
BF0
330
A02
100
AcDbEntity
  8
PolarPattern002
100
AcDbLine
 10
-94.3988
 20
-82.3779
 30
0
 11
-111.906
 21
-99.8852
 31
0
  0
LINE
  5
BF1
330
A02
100
AcDbEntity
  8
PolarPattern002
100
AcDbLine
 10
-94.3988
 20
-82.3779
 30
10
 11
-94.3988
 21
-82.3779
 31
0
  0
LINE
  5
BF2
330
A02
100
AcDbEntity
  8
PolarPattern002
100
AcDbLine
 10
94.3988
 20
-82.3779
 30
10
 11
111.906
 21
-99.8852
 31
10
  0
LINE
  5
BF3
330
A02
100
AcDbEntity
  8
PolarPattern002
100
AcDbLine
 10
111.906
 20
-99.8852
 30
10
 11
111.906
 21
-99.8852
 31
0
  0
LINE
  5
BF4
330
A02
100
AcDbEntity
  8
PolarPattern002
100
AcDbLine
 10
94.3988
 20
-82.3779
 30
0
 11
111.906
 21
-99.8852
 31
0
  0
LINE
  5
BF5
330
A02
100
AcDbEntity
  8
PolarPattern002
100
AcDbLine
 10
94.3988
 20
-82.3779
 30
10
 11
94.3988
 21
-82.3779
 31
0
  0
ARC
  5
BF6
330
A02
100
AcDbEntity
  8
PolarPattern002
100
AcDbCircle
 10
-88.3883
 20
-88.3883
 30
10
 40
8.5
100
AcDbArc
 50
-45
 51
135
  0
LINE
  5
BF7
330
A02
100
AcDbEntity
  8
PolarPattern002
100
AcDbLine
 10
-94.3988
 20
-82.3779
 30
10
 11
-94.3988
 21
-82.3779
 31
0
  0
ARC
  5
BF8
330
A02
100
AcDbEntity
  8
PolarPattern002
100
AcDbCircle
 10
-88.3883
 20
-88.3883
 30
0
 40
8.5
100
AcDbArc
 50
-45
 51
135
  0
LINE
  5
BF9
330
A02
100
AcDbEntity
  8
PolarPattern002
100
AcDbLine
 10
-82.3779
 20
-94.3988
 30
10
 11
-82.3779
 21
-94.3988
 31
0
  0
ARC
  5
BFA
330
A02
100
AcDbEntity
  8
PolarPattern002
100
AcDbCircle
 10
88.3883
 20
-88.3883
 30
10
 40
8.5
100
AcDbArc
 50
45
 51
-135
  0
LINE
  5
BFB
330
A02
100
AcDbEntity
  8
PolarPattern002
100
AcDbLine
 10
82.3779
 20
-94.3988
 30
10
 11
82.3779
 21
-94.3988
 31
0
  0
ARC
  5
BFC
330
A02
100
AcDbEntity
  8
PolarPattern002
100
AcDbCircle
 10
88.3883
 20
-88.3883
 30
0
 40
8.5
100
AcDbArc
 50
45
 51
-135
  0
LINE
  5
BFD
330
A02
100
AcDbEntity
  8
PolarPattern002
100
AcDbLine
 10
94.3988
 20
-82.3779
 30
10
 11
94.3988
 21
-82.3779
 31
0
  0
LINE
  5
BFE
330
A02
100
AcDbEntity
  8
PolarPattern002
100
AcDbLine
 10
-82.3779
 20
-94.3988
 30
10
 11
-99.8852
 21
-111.906
 31
10
  0
LINE
  5
BFF
330
A02
100
AcDbEntity
  8
PolarPattern002
100
AcDbLine
 10
-99.8852
 20
-111.906
 30
10
 11
-99.8852
 21
-111.906
 31
0
  0
LINE
  5
C00
330
A02
100
AcDbEntity
  8
PolarPattern002
100
AcDbLine
 10
-82.3779
 20
-94.3988
 30
0
 11
-99.8852
 21
-111.906
 31
0
  0
LINE
  5
C01
330
A02
100
AcDbEntity
  8
PolarPattern002
100
AcDbLine
 10
-82.3779
 20
-94.3988
 30
10
 11
-82.3779
 21
-94.3988
 31
0
  0
LINE
  5
C02
330
A02
100
AcDbEntity
  8
PolarPattern002
100
AcDbLine
 10
82.3779
 20
-94.3988
 30
10
 11
99.8852
 21
-111.906
 31
10
  0
LINE
  5
C03
330
A02
100
AcDbEntity
  8
PolarPattern002
100
AcDbLine
 10
99.8852
 20
-111.906
 30
10
 11
99.8852
 21
-111.906
 31
0
  0
LINE
  5
C04
330
A02
100
AcDbEntity
  8
PolarPattern002
100
AcDbLine
 10
82.3779
 20
-94.3988
 30
0
 11
99.8852
 21
-111.906
 31
0
  0
LINE
  5
C05
330
A02
100
AcDbEntity
  8
PolarPattern002
100
AcDbLine
 10
82.3779
 20
-94.3988
 30
10
 11
82.3779
 21
-94.3988
 31
0
  0
ARC
  5
C06
330
A02
100
AcDbEntity
  8
PolarPattern002
100
AcDbCircle
 10
0
 20
0
 30
10
 40
150
100
AcDbArc
 50
-131.751
 51
-131.353
  0
LINE
  5
C07
330
A02
100
AcDbEntity
  8
PolarPattern002
100
AcDbLine
 10
-99.8852
 20
-111.906
 30
10
 11
-99.8852
 21
-111.906
 31
0
  0
ARC
  5
C08
330
A02
100
AcDbEntity
  8
PolarPattern002
100
AcDbCircle
 10
0
 20
0
 30
0
 40
150
100
AcDbArc
 50
-131.751
 51
-131.353
  0
LINE
  5
C09
330
A02
100
AcDbEntity
  8
PolarPattern002
100
AcDbLine
 10
-99.1036
 20
-112.599
 30
10
 11
-99.1036
 21
-112.599
 31
0
  0
ARC
  5
C0A
330
A02
100
AcDbEntity
  8
PolarPattern002
100
AcDbCircle
 10
0
 20
0
 30
10
 40
150
100
AcDbArc
 50
-48.6486
 51
-48.2485
  0
LINE
  5
C0B
330
A02
100
AcDbEntity
  8
PolarPattern002
100
AcDbLine
 10
99.1013
 20
-112.601
 30
10
 11
99.1013
 21
-112.601
 31
0
  0
ARC
  5
C0C
330
A02
100
AcDbEntity
  8
PolarPattern002
100
AcDbCircle
 10
0
 20
0
 30
0
 40
150
100
AcDbArc
 50
-48.6486
 51
-48.2485
  0
LINE
  5
C0D
330
A02
100
AcDbEntity
  8
PolarPattern002
100
AcDbLine
 10
99.8852
 20
-111.906
 30
10
 11
99.8852
 21
-111.906
 31
0
  0
ARC
  5
C0E
330
A02
100
AcDbEntity
  8
PolarPattern002
100
AcDbCircle
 10
-102.06
 20
-152.74
 30
10
 40
40.25
100
AcDbArc
 50
26.7109
 51
85.7879
  0
LINE
  5
C0F
330
A02
100
AcDbEntity
  8
PolarPattern002
100
AcDbLine
 10
-99.1036
 20
-112.599
 30
10
 11
-99.1036
 21
-112.599
 31
0
  0
ARC
  5
C10
330
A02
100
AcDbEntity
  8
PolarPattern002
100
AcDbCircle
 10
-102.06
 20
-152.74
 30
0
 40
40.25
100
AcDbArc
 50
26.7109
 51
85.7879
  0
LINE
  5
C11
330
A02
100
AcDbEntity
  8
PolarPattern002
100
AcDbLine
 10
-66.1051
 20
-134.648
 30
10
 11
-66.1051
 21
-134.648
 31
0
  0
ARC
  5
C12
330
A02
100
AcDbEntity
  8
PolarPattern002
100
AcDbCircle
 10
102.057
 20
-152.742
 30
10
 40
40.25
100
AcDbArc
 50
94.2109
 51
153.288
  0
LINE
  5
C13
330
A02
100
AcDbEntity
  8
PolarPattern002
100
AcDbLine
 10
66.1023
 20
-134.649
 30
10
 11
66.1023
 21
-134.649
 31
0
  0
ARC
  5
C14
330
A02
100
AcDbEntity
  8
PolarPattern002
100
AcDbCircle
 10
102.057
 20
-152.742
 30
0
 40
40.25
100
AcDbArc
 50
94.2109
 51
153.288
  0
LINE
  5
C15
330
A02
100
AcDbEntity
  8
PolarPattern002
100
AcDbLine
 10
99.1013
 20
-112.601
 30
10
 11
99.1013
 21
-112.601
 31
0
  0
ARC
  5
C16
330
A02
100
AcDbEntity
  8
PolarPattern002
100
AcDbCircle
 10
0
 20
0
 30
10
 40
150
100
AcDbArc
 50
-116.149
 51
-115.749
  0
LINE
  5
C17
330
A02
100
AcDbEntity
  8
PolarPattern002
100
AcDbLine
 10
-66.1051
 20
-134.648
 30
10
 11
-66.1051
 21
-134.648
 31
0
  0
ARC
  5
C18
330
A02
100
AcDbEntity
  8
PolarPattern002
100
AcDbCircle
 10
0
 20
0
 30
0
 40
150
100
AcDbArc
 50
-116.149
 51
-115.749
  0
LINE
  5
C19
330
A02
100
AcDbEntity
  8
PolarPattern002
100
AcDbLine
 10
-65.1633
 20
-135.106
 30
10
 11
-65.1633
 21
-135.106
 31
0
  0
ARC
  5
C1A
330
A02
100
AcDbEntity
  8
PolarPattern002
100
AcDbCircle
 10
0
 20
0
 30
10
 40
150
100
AcDbArc
 50
-64.2515
 51
-63.8526
  0
LINE
  5
C1B
330
A02
100
AcDbEntity
  8
PolarPattern002
100
AcDbLine
 10
65.1633
 20
-135.106
 30
10
 11
65.1633
 21
-135.106
 31
0
  0
ARC
  5
C1C
330
A02
100
AcDbEntity
  8
PolarPattern002
100
AcDbCircle
 10
0
 20
0
 30
0
 40
150
100
AcDbArc
 50
-64.2515
 51
-63.8526
  0
LINE
  5
C1D
330
A02
100
AcDbEntity
  8
PolarPattern002
100
AcDbLine
 10
66.1023
 20
-134.649
 30
10
 11
66.1023
 21
-134.649
 31
0
  0
LINE
  5
C1E
330
A02
100
AcDbEntity
  8
PolarPattern002
100
AcDbLine
 10
-55.6884
 20
-112.232
 30
10
 11
-65.1633
 21
-135.106
 31
10
  0
LINE
  5
C1F
330
A02
100
AcDbEntity
  8
PolarPattern002
100
AcDbLine
 10
-65.1633
 20
-135.106
 30
10
 11
-65.1633
 21
-135.106
 31
0
  0
LINE
  5
C20
330
A02
100
AcDbEntity
  8
PolarPattern002
100
AcDbLine
 10
-55.6884
 20
-112.232
 30
0
 11
-65.1633
 21
-135.106
 31
0
  0
LINE
  5
C21
330
A02
100
AcDbEntity
  8
PolarPattern002
100
AcDbLine
 10
-55.6884
 20
-112.232
 30
10
 11
-55.6884
 21
-112.232
 31
0
  0
LINE
  5
C22
330
A02
100
AcDbEntity
  8
PolarPattern002
100
AcDbLine
 10
55.6884
 20
-112.232
 30
10
 11
65.1633
 21
-135.106
 31
10
  0
LINE
  5
C23
330
A02
100
AcDbEntity
  8
PolarPattern002
100
AcDbLine
 10
65.1633
 20
-135.106
 30
10
 11
65.1633
 21
-135.106
 31
0
  0
LINE
  5
C24
330
A02
100
AcDbEntity
  8
PolarPattern002
100
AcDbLine
 10
55.6884
 20
-112.232
 30
8.9e-16
 11
65.1633
 21
-135.106
 31
8.9e-16
  0
LINE
  5
C25
330
A02
100
AcDbEntity
  8
PolarPattern002
100
AcDbLine
 10
55.6884
 20
-112.232
 30
10
 11
55.6884
 21
-112.232
 31
0
  0
ARC
  5
C26
330
A02
100
AcDbEntity
  8
PolarPattern002
100
AcDbCircle
 10
-47.8354
 20
-115.485
 30
10
 40
8.5
100
AcDbArc
 50
-22.5
 51
157.5
  0
LINE
  5
C27
330
A02
100
AcDbEntity
  8
PolarPattern002
100
AcDbLine
 10
-55.6884
 20
-112.232
 30
10
 11
-55.6884
 21
-112.232
 31
0
  0
ARC
  5
C28
330
A02
100
AcDbEntity
  8
PolarPattern002
100
AcDbCircle
 10
-47.8354
 20
-115.485
 30
0
 40
8.5
100
AcDbArc
 50
-22.5
 51
157.5
  0
LINE
  5
C29
330
A02
100
AcDbEntity
  8
PolarPattern002
100
AcDbLine
 10
-39.9825
 20
-118.738
 30
10
 11
-39.9825
 21
-118.738
 31
0
  0
ARC
  5
C2A
330
A02
100
AcDbEntity
  8
PolarPattern002
100
AcDbCircle
 10
47.8354
 20
-115.485
 30
10
 40
8.5
100
AcDbArc
 50
22.5
 51
-157.5
  0
LINE
  5
C2B
330
A02
100
AcDbEntity
  8
PolarPattern002
100
AcDbLine
 10
39.9825
 20
-118.738
 30
10
 11
39.9825
 21
-118.738
 31
0
  0
ARC
  5
C2C
330
A02
100
AcDbEntity
  8
PolarPattern002
100
AcDbCircle
 10
47.8354
 20
-115.485
 30
0
 40
8.5
100
AcDbArc
 50
22.5
 51
-157.5
  0
LINE
  5
C2D
330
A02
100
AcDbEntity
  8
PolarPattern002
100
AcDbLine
 10
55.6884
 20
-112.232
 30
10
 11
55.6884
 21
-112.232
 31
0
  0
LINE
  5
C2E
330
A02
100
AcDbEntity
  8
PolarPattern002
100
AcDbLine
 10
-39.9825
 20
-118.738
 30
10
 11
-49.4573
 21
-141.612
 31
10
  0
LINE
  5
C2F
330
A02
100
AcDbEntity
  8
PolarPattern002
100
AcDbLine
 10
-49.4573
 20
-141.612
 30
10
 11
-49.4573
 21
-141.612
 31
0
  0
LINE
  5
C30
330
A02
100
AcDbEntity
  8
PolarPattern002
100
AcDbLine
 10
-39.9825
 20
-118.738
 30
0
 11
-49.4573
 21
-141.612
 31
0
  0
LINE
  5
C31
330
A02
100
AcDbEntity
  8
PolarPattern002
100
AcDbLine
 10
-39.9825
 20
-118.738
 30
10
 11
-39.9825
 21
-118.738
 31
0
  0
LINE
  5
C32
330
A02
100
AcDbEntity
  8
PolarPattern002
100
AcDbLine
 10
39.9825
 20
-118.738
 30
10
 11
49.4573
 21
-141.612
 31
10
  0
LINE
  5
C33
330
A02
100
AcDbEntity
  8
PolarPattern002
100
AcDbLine
 10
49.4573
 20
-141.612
 30
10
 11
49.4573
 21
-141.612
 31
0
  0
LINE
  5
C34
330
A02
100
AcDbEntity
  8
PolarPattern002
100
AcDbLine
 10
39.9825
 20
-118.738
 30
8.9e-16
 11
49.4573
 21
-141.612
 31
8.9e-16
  0
LINE
  5
C35
330
A02
100
AcDbEntity
  8
PolarPattern002
100
AcDbLine
 10
39.9825
 20
-118.738
 30
10
 11
39.9825
 21
-118.738
 31
0
  0
ARC
  5
C36
330
A02
100
AcDbEntity
  8
PolarPattern002
100
AcDbCircle
 10
0
 20
0
 30
10
 40
150
100
AcDbArc
 50
-109.251
 51
-108.853
  0
LINE
  5
C37
330
A02
100
AcDbEntity
  8
PolarPattern002
100
AcDbLine
 10
-49.4573
 20
-141.612
 30
10
 11
-49.4573
 21
-141.612
 31
0
  0
ARC
  5
C38
330
A02
100
AcDbEntity
  8
PolarPattern002
100
AcDbCircle
 10
0
 20
0
 30
0
 40
150
100
AcDbArc
 50
-109.251
 51
-108.853
  0
LINE
  5
C39
330
A02
100
AcDbEntity
  8
PolarPattern002
100
AcDbLine
 10
-48.4702
 20
-141.953
 30
10
 11
-48.4702
 21
-141.953
 31
0
  0
ARC
  5
C3A
330
A02
100
AcDbEntity
  8
PolarPattern002
100
AcDbCircle
 10
0
 20
0
 30
10
 40
150
100
AcDbArc
 50
-71.1486
 51
-70.7485
  0
LINE
  5
C3B
330
A02
100
AcDbEntity
  8
PolarPattern002
100
AcDbLine
 10
48.4672
 20
-141.954
 30
10
 11
48.4672
 21
-141.954
 31
0
  0
ARC
  5
C3C
330
A02
100
AcDbEntity
  8
PolarPattern002
100
AcDbCircle
 10
0
 20
0
 30
0
 40
150
100
AcDbArc
 50
-71.1486
 51
-70.7485
  0
LINE
  5
C3D
330
A02
100
AcDbEntity
  8
PolarPattern002
100
AcDbLine
 10
49.4573
 20
-141.612
 30
10
 11
49.4573
 21
-141.612
 31
0
  0
ARC
  5
C3E
330
A02
100
AcDbEntity
  8
PolarPattern002
100
AcDbCircle
 10
-35.84
 20
-180.17
 30
10
 40
40.25
100
AcDbArc
 50
49.2109
 51
108.288
  0
LINE
  5
C3F
330
A02
100
AcDbEntity
  8
PolarPattern002
100
AcDbLine
 10
-48.4702
 20
-141.953
 30
10
 11
-48.4702
 21
-141.953
 31
0
  0
ARC
  5
C40
330
A02
100
AcDbEntity
  8
PolarPattern002
100
AcDbCircle
 10
-35.84
 20
-180.17
 30
0
 40
40.25
100
AcDbArc
 50
49.2109
 51
108.288
  0
LINE
  5
C41
330
A02
100
AcDbEntity
  8
PolarPattern002
100
AcDbLine
 10
-9.5456
 20
-149.696
 30
10
 11
-9.5456
 21
-149.696
 31
0
  0
ARC
  5
C42
330
A02
100
AcDbEntity
  8
PolarPattern002
100
AcDbCircle
 10
35.8362
 20
-180.171
 30
10
 40
40.25
100
AcDbArc
 50
71.7109
 51
130.788
  0
LINE
  5
C43
330
A02
100
AcDbEntity
  8
PolarPattern002
100
AcDbLine
 10
9.54247
 20
-149.696
 30
10
 11
9.54247
 21
-149.696
 31
0
  0
ARC
  5
C44
330
A02
100
AcDbEntity
  8
PolarPattern002
100
AcDbCircle
 10
35.8362
 20
-180.171
 30
0
 40
40.25
100
AcDbArc
 50
71.7109
 51
130.788
  0
LINE
  5
C45
330
A02
100
AcDbEntity
  8
PolarPattern002
100
AcDbLine
 10
48.4672
 20
-141.954
 30
10
 11
48.4672
 21
-141.954
 31
0
  0
ARC
  5
C46
330
A02
100
AcDbEntity
  8
PolarPattern002
100
AcDbCircle
 10
0
 20
0
 30
10
 40
150
100
AcDbArc
 50
-93.6486
 51
-93.2485
  0
LINE
  5
C47
330
A02
100
AcDbEntity
  8
PolarPattern002
100
AcDbLine
 10
-9.5456
 20
-149.696
 30
10
 11
-9.5456
 21
-149.696
 31
0
  0
ARC
  5
C48
330
A02
100
AcDbEntity
  8
PolarPattern002
100
AcDbCircle
 10
0
 20
0
 30
0
 40
150
100
AcDbArc
 50
-93.6486
 51
-93.2485
  0
LINE
  5
C49
330
A02
100
AcDbEntity
  8
PolarPattern002
100
AcDbLine
 10
-8.5
 20
-149.759
 30
10
 11
-8.5
 21
-149.759
 31
0
  0
ARC
  5
C4A
330
A02
100
AcDbEntity
  8
PolarPattern002
100
AcDbCircle
 10
0
 20
0
 30
10
 40
150
100
AcDbArc
 50
-86.7515
 51
-86.3526
  0
LINE
  5
C4B
330
A02
100
AcDbEntity
  8
PolarPattern002
100
AcDbLine
 10
8.5
 20
-149.759
 30
10
 11
8.5
 21
-149.759
 31
0
  0
ARC
  5
C4C
330
A02
100
AcDbEntity
  8
PolarPattern002
100
AcDbCircle
 10
0
 20
0
 30
0
 40
150
100
AcDbArc
 50
-86.7515
 51
-86.3526
  0
LINE
  5
C4D
330
A02
100
AcDbEntity
  8
PolarPattern002
100
AcDbLine
 10
9.54247
 20
-149.696
 30
10
 11
9.54247
 21
-149.696
 31
0
  0
LINE
  5
C4E
330
A02
100
AcDbEntity
  8
PolarPattern002
100
AcDbLine
 10
-8.5
 20
-125
 30
10
 11
-8.5
 21
-149.759
 31
10
  0
LINE
  5
C4F
330
A02
100
AcDbEntity
  8
PolarPattern002
100
AcDbLine
 10
-8.5
 20
-149.759
 30
10
 11
-8.5
 21
-149.759
 31
0
  0
LINE
  5
C50
330
A02
100
AcDbEntity
  8
PolarPattern002
100
AcDbLine
 10
-8.5
 20
-125
 30
0
 11
-8.5
 21
-149.759
 31
0
  0
LINE
  5
C51
330
A02
100
AcDbEntity
  8
PolarPattern002
100
AcDbLine
 10
-8.5
 20
-125
 30
10
 11
-8.5
 21
-125
 31
0
  0
LINE
  5
C52
330
A02
100
AcDbEntity
  8
PolarPattern002
100
AcDbLine
 10
8.5
 20
-125
 30
10
 11
8.5
 21
-149.759
 31
10
  0
LINE
  5
C53
330
A02
100
AcDbEntity
  8
PolarPattern002
100
AcDbLine
 10
8.5
 20
-149.759
 30
10
 11
8.5
 21
-149.759
 31
0
  0
LINE
  5
C54
330
A02
100
AcDbEntity
  8
PolarPattern002
100
AcDbLine
 10
8.5
 20
-125
 30
0
 11
8.5
 21
-149.759
 31
0
  0
LINE
  5
C55
330
A02
100
AcDbEntity
  8
PolarPattern002
100
AcDbLine
 10
8.5
 20
-125
 30
10
 11
8.5
 21
-125
 31
0
  0
ARC
  5
C56
330
A02
100
AcDbEntity
  8
PolarPattern002
100
AcDbCircle
 10
0
 20
-125
 30
10
 40
8.5
100
AcDbArc
 50
9.57908e-14
 51
-180
  0
LINE
  5
C57
330
A02
100
AcDbEntity
  8
PolarPattern002
100
AcDbLine
 10
-8.5
 20
-125
 30
10
 11
-8.5
 21
-125
 31
0
  0
ARC
  5
C58
330
A02
100
AcDbEntity
  8
PolarPattern002
100
AcDbCircle
 10
-1.531e-14
 20
-125
 30
0
 40
8.5
100
AcDbArc
 50
9.57908e-14
 51
-180
  0
LINE
  5
C59
330
A02
100
AcDbEntity
  8
PolarPattern002
100
AcDbLine
 10
8.5
 20
-125
 30
10
 11
8.5
 21
-125
 31
0
  0
CIRCLE
  5
C5A
330
A02
100
AcDbEntity
  8
PolarPattern002
100
AcDbCircle
 10
-56.5685
 20
-56.5685
 40
5.05
  0
LINE
  5
C5B
330
A02
100
AcDbEntity
  8
PolarPattern002
100
AcDbLine
 10
-60.1394
 20
-52.9977
 30
10
 11
-60.1394
 21
-52.9977
 31
0
  0
CIRCLE
  5
C5C
330
A02
100
AcDbEntity
  8
PolarPattern002
100
AcDbCircle
 10
-56.5685
 20
-56.5685
 40
5.05
  0
LINE
  5
C5D
330
A02
100
AcDbEntity
  8
PolarPattern002
100
AcDbLine
 10
-60.1394
 20
-52.9977
 30
10
 11
-60.1394
 21
-52.9977
 31
0
  0
CIRCLE
  5
C5E
330
A02
100
AcDbEntity
  8
PolarPattern002
100
AcDbCircle
 10
0
 20
-80
 40
5.05
  0
LINE
  5
C5F
330
A02
100
AcDbEntity
  8
PolarPattern002
100
AcDbLine
 10
-5.05
 20
-80
 30
10
 11
-5.05
 21
-80
 31
0
  0
CIRCLE
  5
C60
330
A02
100
AcDbEntity
  8
PolarPattern002
100
AcDbCircle
 10
-9.8e-15
 20
-80
 40
5.05
  0
LINE
  5
C61
330
A02
100
AcDbEntity
  8
PolarPattern002
100
AcDbLine
 10
-5.05
 20
-80
 30
10
 11
-5.05
 21
-80
 31
0
  0
CIRCLE
  5
C62
330
A02
100
AcDbEntity
  8
PolarPattern002
100
AcDbCircle
 10
56.5685
 20
-56.5685
 40
5.05
  0
LINE
  5
C63
330
A02
100
AcDbEntity
  8
PolarPattern002
100
AcDbLine
 10
52.9977
 20
-60.1394
 30
10
 11
52.9977
 21
-60.1394
 31
0
  0
CIRCLE
  5
C64
330
A02
100
AcDbEntity
  8
PolarPattern002
100
AcDbCircle
 10
56.5685
 20
-56.5685
 40
5.05
  0
LINE
  5
C65
330
A02
100
AcDbEntity
  8
PolarPattern002
100
AcDbLine
 10
52.9977
 20
-60.1394
 30
10
 11
52.9977
 21
-60.1394
 31
0
  0
CIRCLE
  5
C66
330
A02
100
AcDbEntity
  8
PolarPattern002
100
AcDbCircle
 10
80
 20
0
 40
5.05
  0
LINE
  5
C67
330
A02
100
AcDbEntity
  8
PolarPattern002
100
AcDbLine
 10
80
 20
-5.05
 30
10
 11
80
 21
-5.05
 31
0
  0
CIRCLE
  5
C68
330
A02
100
AcDbEntity
  8
PolarPattern002
100
AcDbCircle
 10
80
 20
-1.776e-14
 40
5.05
  0
LINE
  5
C69
330
A02
100
AcDbEntity
  8
PolarPattern002
100
AcDbLine
 10
80
 20
-5.05
 30
10
 11
80
 21
-5.05
 31
0
  0
CIRCLE
  5
C6A
330
A02
100
AcDbEntity
  8
PolarPattern002
100
AcDbCircle
 10
-80
 20
0
 40
5.05
  0
LINE
  5
C6B
330
A02
100
AcDbEntity
  8
PolarPattern002
100
AcDbLine
 10
-80
 20
5.05
 30
10
 11
-80
 21
5.05
 31
0
  0
CIRCLE
  5
C6C
330
A02
100
AcDbEntity
  8
PolarPattern002
100
AcDbCircle
 10
-80
 20
8.88e-15
 40
5.05
  0
LINE
  5
C6D
330
A02
100
AcDbEntity
  8
PolarPattern002
100
AcDbLine
 10
-80
 20
5.05
 30
10
 11
-80
 21
5.05
 31
0
  0
CIRCLE
  5
C6E
330
A02
100
AcDbEntity
  8
PolarPattern002
100
AcDbCircle
 10
-56.5685
 20
56.5685
 40
5.05
  0
LINE
  5
C6F
330
A02
100
AcDbEntity
  8
PolarPattern002
100
AcDbLine
 10
-52.9977
 20
60.1394
 30
10
 11
-52.9977
 21
60.1394
 31
0
  0
CIRCLE
  5
C70
330
A02
100
AcDbEntity
  8
PolarPattern002
100
AcDbCircle
 10
-56.5685
 20
56.5685
 40
5.05
  0
LINE
  5
C71
330
A02
100
AcDbEntity
  8
PolarPattern002
100
AcDbLine
 10
-52.9977
 20
60.1394
 30
10
 11
-52.9977
 21
60.1394
 31
0
  0
LINE
  5
C72
330
A02
100
AcDbEntity
  8
PolarPattern002
100
AcDbLine
 10
60
 20
0
 30
0
 11
60
 21
0
 31
10
  0
LINE
  5
C73
330
A02
100
AcDbEntity
  8
PolarPattern002
100
AcDbLine
 10
60
 20
0
 30
0
 11
60
 21
0
 31
10
  0
CIRCLE
  5
C74
330
A02
100
AcDbEntity
  8
PolarPattern002
100
AcDbCircle
 10
0
 20
0
 40
60
  0
CIRCLE
  5
C75
330
A02
100
AcDbEntity
  8
PolarPattern002
100
AcDbCircle
 10
0
 20
0
 40
60
  0
CIRCLE
  5
C76
330
A02
100
AcDbEntity
  8
PolarPattern002
100
AcDbCircle
 10
0
 20
80
 40
5.05
  0
LINE
  5
C77
330
A02
100
AcDbEntity
  8
PolarPattern002
100
AcDbLine
 10
5.05
 20
80
 30
10
 11
5.05
 21
80
 31
0
  0
CIRCLE
  5
C78
330
A02
100
AcDbEntity
  8
PolarPattern002
100
AcDbCircle
 10
0
 20
80
 40
5.05
  0
LINE
  5
C79
330
A02
100
AcDbEntity
  8
PolarPattern002
100
AcDbLine
 10
5.05
 20
80
 30
10
 11
5.05
 21
80
 31
0
  0
CIRCLE
  5
C7A
330
A02
100
AcDbEntity
  8
PolarPattern002
100
AcDbCircle
 10
56.5685
 20
56.5685
 40
5.05
  0
LINE
  5
C7B
330
A02
100
AcDbEntity
  8
PolarPattern002
100
AcDbLine
 10
60.1394
 20
52.9977
 30
10
 11
60.1394
 21
52.9977
 31
0
  0
CIRCLE
  5
C7C
330
A02
100
AcDbEntity
  8
PolarPattern002
100
AcDbCircle
 10
56.5685
 20
56.5685
 40
5.05
  0
LINE
  5
C7D
330
A02
100
AcDbEntity
  8
PolarPattern002
100
AcDbLine
 10
60.1394
 20
52.9977
 30
10
 11
60.1394
 21
52.9977
 31
0
  0
ENDSEC
  0
SECTION
  2
OBJECTS
  0
DICTIONARY
  5
F000
330
0
100
AcDbDictionary
  3
ACAD_GROUP
350
F001
  0
DICTIONARY
  5
F001
330
F000
100
AcDbDictionary
  0
ENDSEC
  0
EOF