999
dxfrw 0.6.3
  0
SECTION
  2
HEADER
  9
$ACADVER
  1
AC1021
  9
$DWGCODEPAGE
  3
ANSI_1252
  9
$INSBASE
 10
0
 20
0
 30
0
  9
$EXTMIN
 10
-1700
 20
-700
 30
0
  9
$EXTMAX
 10
600
 20
500.0000000000001
 30
0
  9
$LIMMIN
 10
0
 20
0
  9
$LIMMAX
 10
420
 20
297
  9
$ORTHOMODE
 70
    0
  9
$REGENMODE
 70
    1
  9
$FILLMODE
 70
    1
  9
$QTEXTMODE
 70
    0
  9
$MIRRTEXT
 70
    0
  9
$LTSCALE
 40
1
  9
$ATTMODE
 70
    0
  9
$TEXTSIZE
 40
2.5
  9
$TRACEWID
 40
15.68
  9
$TEXTSTYLE
  7
STANDARD
  9
$CLAYER
  8
0
  9
$CELTYPE
  6
BYLAYER
  9
$CECOLOR
 62
  256
  9
$CELTSCALE
 40
1
  9
$DISPSILH
 70
    0
  9
$DIMSCALE
 40
2.5
  9
$DIMASZ
 40
2.5
  9
$DIMEXO
 40
0.625
  9
$DIMDLI
 40
3.75
  9
$DIMRND
 40
0
  9
$DIMDLE
 40
0
  9
$DIMEXE
 40
1.25
  9
$DIMTP
 40
0
  9
$DIMTM
 40
0
  9
$DIMTXT
 40
2.5
  9
$DIMCEN
 40
2.5
  9
$DIMTSZ
 40
0
  9
$DIMTOL
 70
    0
  9
$DIMLIM
 70
    0
  9
$DIMTIH
 70
    0
  9
$DIMTOH
 70
    0
  9
$DIMSE1
 70
    0
  9
$DIMSE2
 70
    0
  9
$DIMTAD
 70
    1
  9
$DIMZIN
 70
    8
  9
$DIMBLK
  1

  9
$DIMASO
 70
    1
  9
$DIMSHO
 70
    1
  9
$DIMPOST
  1

  9
$DIMAPOST
  1

  9
$DIMALT
 70
    0
  9
$DIMALTD
 70
    3
  9
$DIMALTF
 40
0.03937
  9
$DIMLFAC
 40
1
  9
$DIMTOFL
 70
    1
  9
$DIMTVP
 40
0
  9
$DIMTIX
 70
    0
  9
$DIMSOXD
 70
    0
  9
$DIMSAH
 70
    0
  9
$DIMBLK1
  1

  9
$DIMBLK2
  1

  9
$DIMSTYLE
  2
STANDARD
  9
$DIMCLRD
 70
    0
  9
$DIMCLRE
 70
    0
  9
$DIMCLRT
 70
    0
  9
$DIMTFAC
 40
1
  9
$DIMGAP
 40
0.625
  9
$DIMJUST
 70
    0
  9
$DIMSD1
 70
    0
  9
$DIMSD2
 70
    0
  9
$DIMTOLJ
 70
    0
  9
$DIMTZIN
 70
    8
  9
$DIMALTZ
 70
    0
  9
$DIMALTTZ
 70
    0
  9
$DIMUPT
 70
    0
  9
$DIMDEC
 70
    2
  9
$DIMTDEC
 70
    2
  9
$DIMALTU
 70
    2
  9
$DIMALTTD
 70
    3
  9
$DIMTXSTY
  7
STANDARD
  9
$DIMAUNIT
 70
    0
  9
$DIMADEC
 70
    0
  9
$DIMALTRND
 40
0
  9
$DIMAZIN
 70
    0
  9
$DIMDSEP
 70
   44
  9
$DIMATFIT
 70
    3
  9
$DIMFRAC
 70
    0
  9
$DIMLDRBLK
  1
STANDARD
  9
$DIMLUNIT
 70
    2
  9
$DIMLWD
 70
   -2
  9
$DIMLWE
 70
   -2
  9
$DIMTMOVE
 70
    0
  9
$DIMFXL
 40
1
  9
$DIMFXLON
 70
    0
  9
$DIMJOGANG
 40
0.7854
  9
$DIMTFILL
 70
    0
  9
$DIMTFILLCLR
 70
    0
  9
$DIMARCSYM
 70
    0
  9
$DIMLTYPE
  6

  9
$DIMLTEX1
  6

  9
$DIMLTEX2
  6

  9
$LUNITS
 70
    2
  9
$LUPREC
 70
    4
  9
$SKETCHINC
 40
1
  9
$FILLETRAD
 40
0
  9
$AUNITS
 70
    0
  9
$AUPREC
 70
    2
  9
$MENU
  1
.
  9
$ELEVATION
 40
0
  9
$PELEVATION
 40
0
  9
$THICKNESS
 40
0
  9
$LIMCHECK
 70
    0
  9
$CHAMFERA
 40
0
  9
$CHAMFERB
 40
0
  9
$CHAMFERC
 40
0
  9
$CHAMFERD
 40
0
  9
$SKPOLY
 70
    0
  9
$USRTIMER
 70
    1
  9
$ANGBASE
 50
0
  9
$ANGDIR
 70
    0
  9
$PDMODE
 70
   34
  9
$PDSIZE
 40
0
  9
$PLINEWID
 40
0
  9
$SPLFRAME
 70
    0
  9
$SPLINETYPE
 70
    2
  9
$SPLINESEGS
 70
    8
  9
$HANDSEED
  5
20000
  9
$SURFTAB1
 70
    6
  9
$SURFTAB2
 70
    6
  9
$SURFTYPE
 70
    6
  9
$SURFU
 70
    6
  9
$SURFV
 70
    6
  9
$UCSBASE
  2

  9
$UCSNAME
  2

  9
$UCSORG
 10
0
 20
0
 30
0
  9
$UCSXDIR
 10
1
 20
0
 30
0
  9
$UCSYDIR
 10
0
 20
1
 30
0
  9
$UCSORTHOREF
  2

  9
$UCSORTHOVIEW
 70
    0
  9
$UCSORGTOP
 10
0
 20
0
 30
0
  9
$UCSORGBOTTOM
 10
0
 20
0
 30
0
  9
$UCSORGLEFT
 10
0
 20
0
 30
0
  9
$UCSORGRIGHT
 10
0
 20
0
 30
0
  9
$UCSORGFRONT
 10
0
 20
0
 30
0
  9
$UCSORGBACK
 10
0
 20
0
 30
0
  9
$PUCSBASE
  2

  9
$PUCSNAME
  2

  9
$PUCSORG
 10
0
 20
0
 30
0
  9
$PUCSXDIR
 10
1
 20
0
 30
0
  9
$PUCSYDIR
 10
0
 20
1
 30
0
  9
$PUCSORTHOREF
  2

  9
$PUCSORTHOVIEW
 70
    0
  9
$PUCSORGTOP
 10
0
 20
0
 30
0
  9
$PUCSORGBOTTOM
 10
0
 20
0
 30
0
  9
$PUCSORGLEFT
 10
0
 20
0
 30
0
  9
$PUCSORGRIGHT
 10
0
 20
0
 30
0
  9
$PUCSORGFRONT
 10
0
 20
0
 30
0
  9
$PUCSORGBACK
 10
0
 20
0
 30
0
  9
$USERI1
 70
    0
  9
$USERI2
 70
    0
  9
$USERI3
 70
    0
  9
$USERI4
 70
    0
  9
$USERI5
 70
    0
  9
$USERR1
 40
0
  9
$USERR2
 40
0
  9
$USERR3
 40
0
  9
$USERR4
 40
0
  9
$USERR5
 40
0
  9
$WORLDVIEW
 70
    1
  9
$SHADEDGE
 70
    3
  9
$SHADEDIF
 70
   70
  9
$TILEMODE
 70
    1
  9
$MAXACTVP
 70
   64
  9
$PINSBASE
 10
0
 20
0
 30
0
  9
$PLIMCHECK
 70
    0
  9
$PEXTMIN
 10
0
 20
0
 30
0
  9
$PEXTMAX
 10
0
 20
0
 30
0
  9
$GRIDMODE
 70
    1
  9
$SNAPSTYLE
 70
    0
  9
$PLIMMIN
 10
0
 20
0
  9
$PLIMMAX
 10
210
 20
297
  9
$UNITMODE
 70
    0
  9
$VISRETAIN
 70
    1
  9
$PLINEGEN
 70
    0
  9
$PSLTSCALE
 70
    1
  9
$TREEDEPTH
 70
 3020
  9
$CMLSTYLE
  2
Standard
  9
$CMLJUST
 70
    0
  9
$CMLSCALE
 40
20
  9
$PROXYGRAPHICS
 70
    1
  9
$MEASUREMENT
 70
    1
  9
$CELWEIGHT
370
   -1
  9
$ENDCAPS
280
    0
  9
$JOINSTYLE
280
    0
  9
$LWDISPLAY
290
    0
  9
$INSUNITS
 70
    0
  9
$HYPERLINKBASE
  1

  9
$STYLESHEET
  1

  9
$XEDIT
290
    1
  9
$CEPSNTYPE
380
    0
  9
$PSTYLEMODE
290
    1
  9
$EXTNAMES
290
    1
  9
$PSVPSCALE
 40
1
  9
$OLESTARTUP
290
    0
  9
$SORTENTS
280
  127
  9
$INDEXCTL
280
    0
  9
$HIDETEXT
280
    1
  9
$XCLIPFRAME
290
    0
  9
$HALOGAP
280
    0
  9
$OBSCOLOR
 70
  257
  9
$OBSLTYPE
280
    0
  9
$INTERSECTIONDISPLAY
280
    0
  9
$INTERSECTIONCOLOR
 70
  257
  9
$DIMASSOC
280
    1
  9
$PROJECTNAME
  1

  9
$CAMERADISPLAY
290
    0
  9
$LENSLENGTH
 40
50
  9
$CAMERAHEIGHT
 40
0
  9
$STEPSPERSEC
 40
2
  9
$STEPSIZE
 40
50
  9
$3DDWFPREC
 40
2
  9
$PSOLWIDTH
 40
5
  9
$PSOLHEIGHT
 40
80
  9
$LOFTANG1
 40
1.570796326794897
  9
$LOFTANG2
 40
1.570796326794897
  9
$LOFTMAG1
 40
0
  9
$LOFTMAG2
 40
0
  9
$LOFTPARAM
 70
    7
  9
$LOFTNORMALS
280
    1
  9
$LATITUDE
 40
1
  9
$LONGITUDE
 40
1
  9
$NORTHDIRECTION
 40
0
  9
$TIMEZONE
 70
-8000
  9
$LIGHTGLYPHDISPLAY
280
    1
  9
$TILEMODELIGHTSYNCH
280
    1
  9
$SOLIDHIST
280
    1
  9
$SHOWHIST
280
    1
  9
$DWFFRAME
280
    2
  9
$DGNFRAME
280
    0
  9
$REALWORLDSCALE
290
    1
  9
$INTERFERECOLOR
 62
    1
  9
$CSHADOW
280
    0
  9
$SHADOWPLANELOCATION
 40
0
  0
ENDSEC
  0
SECTION
  2
CLASSES
  0
ENDSEC
  0
SECTION
  2
TABLES
  0
TABLE
  2
VPORT
  5
8
330
0
100
AcDbSymbolTable
 70
    1
  0
VPORT
  5
31
330
2
100
AcDbSymbolTableRecord
100
AcDbViewportTableRecord
  2
*ACTIVE
 70
    0
 10
0
 20
0
 11
1
 21
1
 12
670.6717442639723
 22
508.0464528916933
 13
0
 23
0
 14
10
 24
10
 15
10
 25
10
 16
0
 26
0
 36
1
 17
0
 27
0
 37
0
 40
2072.526969116486
 41
1.575425790754258
 42
50
 43
0
 44
0
 50
0
 51
0
 71
    0
 72
  100
 73
    1
 74
    3
 75
    0
 76
    1
 77
    0
 78
    0
281
    0
 65
    1
110
0
120
0
130
0
111
1
121
0
131
0
112
0
122
1
132
0
 79
    0
146
0
348
10020
 60
    7
 61
    5
292
1
282
    1
141
0
142
0
 63
  250
421
3358443
  0
ENDTAB
  0
TABLE
  2
LTYPE
  5
5
330
0
100
AcDbSymbolTable
 70
    4
  0
LTYPE
  5
14
330
5
100
AcDbSymbolTableRecord
100
AcDbLinetypeTableRecord
  2
ByBlock
 70
    0
  3

 72
   65
 73
    0
 40
0
  0
LTYPE
  5
15
330
5
100
AcDbSymbolTableRecord
100
AcDbLinetypeTableRecord
  2
ByLayer
 70
    0
  3

 72
   65
 73
    0
 40
0
  0
LTYPE
  5
16
330
5
100
AcDbSymbolTableRecord
100
AcDbLinetypeTableRecord
  2
Continuous
 70
    0
  3
Solid line
 72
   65
 73
    0
 40
0
  0
LTYPE
  5
32
330
5
100
AcDbSymbolTableRecord
100
AcDbLinetypeTableRecord
  2
DOT
 70
    0
  3
Dot . . . . . . . . . . . . . . . . . . . . . .
 72
   65
 73
    2
 40
6.35
 49
0
 74
    0
 49
-6.35
 74
    0
  0
LTYPE
  5
33
330
5
100
AcDbSymbolTableRecord
100
AcDbLinetypeTableRecord
  2
DOTTINY
 70
    0
  3
Dot (.15x) .....................................
 72
   65
 73
    2
 40
0.9525
 49
0
 74
    0
 49
-0.9525
 74
    0
  0
LTYPE
  5
34
330
5
100
AcDbSymbolTableRecord
100
AcDbLinetypeTableRecord
  2
DOT2
 70
    0
  3
Dot (.5x) .....................................
 72
   65
 73
    2
 40
3.175
 49
0
 74
    0
 49
-3.175
 74
    0
  0
LTYPE
  5
35
330
5
100
AcDbSymbolTableRecord
100
AcDbLinetypeTableRecord
  2
DOTX2
 70
    0
  3
Dot (2x) .  .  .  .  .  .  .  .  .  .  .  .  .
 72
   65
 73
    2
 40
12.7
 49
0
 74
    0
 49
-12.7
 74
    0
  0
LTYPE
  5
36
330
5
100
AcDbSymbolTableRecord
100
AcDbLinetypeTableRecord
  2
DASHED
 70
    0
  3
Dashed _ _ _ _ _ _ _ _ _ _ _ _ _ _ _ _ _
 72
   65
 73
    2
 40
19.05
 49
12.7
 74
    0
 49
-6.35
 74
    0
  0
LTYPE
  5
37
330
5
100
AcDbSymbolTableRecord
100
AcDbLinetypeTableRecord
  2
DASHEDTINY
 70
    0
  3
Dashed (.15x) _ _ _ _ _ _ _ _ _ _ _ _ _ _ _ _ _
 72
   65
 73
    2
 40
2.8575
 49
1.905
 74
    0
 49
-0.9525
 74
    0
  0
LTYPE
  5
38
330
5
100
AcDbSymbolTableRecord
100
AcDbLinetypeTableRecord
  2
DASHED2
 70
    0
  3
Dashed (.5x) _ _ _ _ _ _ _ _ _ _ _ _ _ _ _ _ _
 72
   65
 73
    2
 40
9.524999999999999
 49
6.35
 74
    0
 49
-3.175
 74
    0
  0
LTYPE
  5
39
330
5
100
AcDbSymbolTableRecord
100
AcDbLinetypeTableRecord
  2
DASHEDX2
 70
    0
  3
Dashed (2x) ____  ____  ____  ____  ____  ___
 72
   65
 73
    2
 40
38.09999999999999
 49
25.4
 74
    0
 49
-12.7
 74
    0
  0
LTYPE
  5
3A
330
5
100
AcDbSymbolTableRecord
100
AcDbLinetypeTableRecord
  2
DASHDOT
 70
    0
  3
Dash dot __ . __ . __ . __ . __ . __ . __ . __
 72
   65
 73
    4
 40
25.4
 49
12.7
 74
    0
 49
-6.35
 74
    0
 49
0
 74
    0
 49
-6.35
 74
    0
  0
LTYPE
  5
3B
330
5
100
AcDbSymbolTableRecord
100
AcDbLinetypeTableRecord
  2
DASHDOTTINY
 70
    0
  3
Dash dot (.15x) _._._._._._._._._._._._._._._.
 72
   65
 73
    4
 40
3.81
 49
1.905
 74
    0
 49
-0.9525
 74
    0
 49
0
 74
    0
 49
-0.9525
 74
    0
  0
LTYPE
  5
3C
330
5
100
AcDbSymbolTableRecord
100
AcDbLinetypeTableRecord
  2
DASHDOT2
 70
    0
  3
Dash dot (.5x) _._._._._._._._._._._._._._._.
 72
   65
 73
    4
 40
12.7
 49
6.35
 74
    0
 49
-3.175
 74
    0
 49
0
 74
    0
 49
-3.175
 74
    0
  0
LTYPE
  5
3D
330
5
100
AcDbSymbolTableRecord
100
AcDbLinetypeTableRecord
  2
DASHDOTX2
 70
    0
  3
Dash dot (2x) ____  .  ____  .  ____  .  ___
 72
   65
 73
    4
 40
50.8
 49
25.4
 74
    0
 49
-12.7
 74
    0
 49
0
 74
    0
 49
-12.7
 74
    0
  0
LTYPE
  5
3E
330
5
100
AcDbSymbolTableRecord
100
AcDbLinetypeTableRecord
  2
DIVIDE
 70
    0
  3
Divide ____ . . ____ . . ____ . . ____ . . ____
 72
   65
 73
    6
 40
31.75
 49
12.7
 74
    0
 49
-6.35
 74
    0
 49
0
 74
    0
 49
-6.35
 74
    0
 49
0
 74
    0
 49
-6.35
 74
    0
  0
LTYPE
  5
3F
330
5
100
AcDbSymbolTableRecord
100
AcDbLinetypeTableRecord
  2
DIVIDETINY
 70
    0
  3
Divide (.15x) __..__..__..__..__..__..__..__.._
 72
   65
 73
    6
 40
4.7625
 49
1.905
 74
    0
 49
-0.9525
 74
    0
 49
0
 74
    0
 49
-0.9525
 74
    0
 49
0
 74
    0
 49
-0.9525
 74
    0
  0
LTYPE
  5
40
330
5
100
AcDbSymbolTableRecord
100
AcDbLinetypeTableRecord
  2
DIVIDE2
 70
    0
  3
Divide (.5x) __..__..__..__..__..__..__..__.._
 72
   65
 73
    6
 40
15.875
 49
6.35
 74
    0
 49
-3.175
 74
    0
 49
0
 74
    0
 49
-3.175
 74
    0
 49
0
 74
    0
 49
-3.175
 74
    0
  0
LTYPE
  5
41
330
5
100
AcDbSymbolTableRecord
100
AcDbLinetypeTableRecord
  2
DIVIDEX2
 70
    0
  3
Divide (2x) ________  .  .  ________  .  .  _
 72
   65
 73
    6
 40
63.5
 49
25.4
 74
    0
 49
-12.7
 74
    0
 49
0
 74
    0
 49
-12.7
 74
    0
 49
0
 74
    0
 49
-12.7
 74
    0
  0
LTYPE
  5
42
330
5
100
AcDbSymbolTableRecord
100
AcDbLinetypeTableRecord
  2
BORDER
 70
    0
  3
Border __ __ . __ __ . __ __ . __ __ . __ __ .
 72
   65
 73
    6
 40
44.45
 49
12.7
 74
    0
 49
-6.35
 74
    0
 49
12.7
 74
    0
 49
-6.35
 74
    0
 49
0
 74
    0
 49
-6.35
 74
    0
  0
LTYPE
  5
43
330
5
100
AcDbSymbolTableRecord
100
AcDbLinetypeTableRecord
  2
BORDERTINY
 70
    0
  3
Border (.15x) __.__.__.__.__.__.__.__.__.__.__.
 72
   65
 73
    6
 40
6.6675
 49
1.905
 74
    0
 49
-0.9525
 74
    0
 49
1.905
 74
    0
 49
-0.9525
 74
    0
 49
0
 74
    0
 49
-0.9525
 74
    0
  0
LTYPE
  5
44
330
5
100
AcDbSymbolTableRecord
100
AcDbLinetypeTableRecord
  2
BORDER2
 70
    0
  3
Border (.5x) __.__.__.__.__.__.__.__.__.__.__.
 72
   65
 73
    6
 40
22.225
 49
6.35
 74
    0
 49
-3.175
 74
    0
 49
6.35
 74
    0
 49
-3.175
 74
    0
 49
0
 74
    0
 49
-3.175
 74
    0
  0
LTYPE
  5
45
330
5
100
AcDbSymbolTableRecord
100
AcDbLinetypeTableRecord
  2
BORDERX2
 70
    0
  3
Border (2x) ____  ____  .  ____  ____  .  ___
 72
   65
 73
    6
 40
88.89999999999999
 49
25.4
 74
    0
 49
-12.7
 74
    0
 49
25.4
 74
    0
 49
-12.7
 74
    0
 49
0
 74
    0
 49
-12.7
 74
    0
  0
LTYPE
  5
46
330
5
100
AcDbSymbolTableRecord
100
AcDbLinetypeTableRecord
  2
CENTER
 70
    0
  3
Center ____ _ ____ _ ____ _ ____ _ ____ _ ____
 72
   65
 73
    4
 40
50.8
 49
31.75
 74
    0
 49
-6.35
 74
    0
 49
6.35
 74
    0
 49
-6.35
 74
    0
  0
LTYPE
  5
47
330
5
100
AcDbSymbolTableRecord
100
AcDbLinetypeTableRecord
  2
CENTERTINY
 70
    0
  3
Center (.15x) ___ _ ___ _ ___ _ ___ _ ___ _ ___
 72
   65
 73
    4
 40
7.619999999999999
 49
4.7625
 74
    0
 49
-0.9525
 74
    0
 49
0.9525
 74
    0
 49
-0.9525
 74
    0
  0
LTYPE
  5
48
330
5
100
AcDbSymbolTableRecord
100
AcDbLinetypeTableRecord
  2
CENTER2
 70
    0
  3
Center (.5x) ___ _ ___ _ ___ _ ___ _ ___ _ ___
 72
   65
 73
    4
 40
28.575
 49
19.05
 74
    0
 49
-3.175
 74
    0
 49
3.175
 74
    0
 49
-3.175
 74
    0
  0
LTYPE
  5
49
330
5
100
AcDbSymbolTableRecord
100
AcDbLinetypeTableRecord
  2
CENTERX2
 70
    0
  3
Center (2x) ________  __  ________  __  _____
 72
   65
 73
    4
 40
101.6
 49
63.5
 74
    0
 49
-12.7
 74
    0
 49
12.7
 74
    0
 49
-12.7
 74
    0
  0
ENDTAB
  0
TABLE
  2
LAYER
  5
2
330
0
100
AcDbSymbolTable
 70
    1
  0
LAYER
  5
10
330
2
100
AcDbSymbolTableRecord
100
AcDbLayerTableRecord
  2
0
 70
    0
 62
    7
  6
CONTINUOUS
370
    0
390
F
  0
LAYER
  5
4A
330
2
100
AcDbSymbolTableRecord
100
AcDbLayerTableRecord
  2
Hole
 70
    0
 62
    7
  6
CONTINUOUS
370
   -3
390
F
  0
LAYER
  5
4B
330
2
100
AcDbSymbolTableRecord
100
AcDbLayerTableRecord
  2
Pocket
 70
    0
 62
    7
  6
CONTINUOUS
370
   -3
390
F
  0
LAYER
  5
4C
330
2
100
AcDbSymbolTableRecord
100
AcDbLayerTableRecord
  2
Pocket001
 70
    0
 62
    7
  6
CONTINUOUS
370
   -3
390
F
  0
LAYER
  5
4D
330
2
100
AcDbSymbolTableRecord
100
AcDbLayerTableRecord
  2
PolarPattern002
 70
    0
 62
    7
  6
CONTINUOUS
370
   -3
390
F
  0
LAYER
  5
4E
330
2
100
AcDbSymbolTableRecord
100
AcDbLayerTableRecord
  2
none
 70
    0
 62
    7
  6
CONTINUOUS
370
   -3
390
F
  0
ENDTAB
  0
TABLE
  2
STYLE
  5
3
330
0
100
AcDbSymbolTable
 70
    3
  0
STYLE
  5
4F
330
2
100
AcDbSymbolTableRecord
100
AcDbTextStyleTableRecord
  2
Standard
 70
    0
 40
0
 41
1
 50
0
 71
    0
 42
1
  3
txt
  4

  0
ENDTAB
  0
TABLE
  2
VIEW
  5
6
330
0
100
AcDbSymbolTable
 70
    0
  0
ENDTAB
  0
TABLE
  2
UCS
  5
7
330
0
100
AcDbSymbolTable
 70
    0
  0
ENDTAB
  0
TABLE
  2
APPID
  5
9
330
0
100
AcDbSymbolTable
 70
    1
  0
APPID
  5
12
330
9
100
AcDbSymbolTableRecord
100
AcDbRegAppTableRecord
  2
ACAD
 70
    0
  0
APPID
  5
50
330
9
100
AcDbSymbolTableRecord
100
AcDbRegAppTableRecord
  2
LibreCad
 70
    0
  0
ENDTAB
  0
TABLE
  2
DIMSTYLE
  5
A
330
0
100
AcDbSymbolTable
 70
    1
100
AcDbDimStyleTable
 71
    1
  0
DIMSTYLE
105
51
330
A
100
AcDbSymbolTableRecord
100
AcDbDimStyleTableRecord
  2
Standard
 70
    0
 40
1
 41
2.5
 42
0.625
 43
0.38
 44
1.25
 45
0
 46
0
 47
0
 48
0
 49
1
140
2.5
141
0.09
142
2.5
143
25.4
144
1
145
0
146
1
147
0.625
148
0
 71
    0
 72
    0
 73
    0
 74
    1
 75
    0
 76
    0
 77
    0
 78
    1
 79
    0
170
    0
171
    2
172
    0
173
    0
174
    0
175
    0
176
    0
177
    0
178
    0
179
    0
271
    2
272
    4
273
    2
274
    2
275
    0
276
    0
277
    2
278
    0
279
    0
280
    0
281
    0
282
    0
283
    1
284
    0
285
    0
286
    0
288
    0
289
    3
340
standard
341

371
   -2
372
   -2
  0
ENDTAB
  0
TABLE
  2
BLOCK_RECORD
  5
1
330
0
100
AcDbSymbolTable
 70
    2
  0
BLOCK_RECORD
  5
1F
330
1
100
AcDbSymbolTableRecord
100
AcDbBlockTableRecord
  2
*Model_Space
 70
    0
280
    1
281
    0
  0
BLOCK_RECORD
  5
1E
330
1
100
AcDbSymbolTableRecord
100
AcDbBlockTableRecord
  2
*Paper_Space
 70
    0
280
    1
281
    0
  0
BLOCK_RECORD
  5
52
330
1
100
AcDbSymbolTableRecord
100
AcDbBlockTableRecord
  2
Piastra Superiore-BodyPocket
 70
    0
280
    1
281
    0
  0
BLOCK_RECORD
  5
55
330
1
100
AcDbSymbolTableRecord
100
AcDbBlockTableRecord
  2
Piatto rotante-BodyPolarPattern002
 70
    0
280
    1
281
    0
  0
BLOCK_RECORD
  5
58
330
1
100
AcDbSymbolTableRecord
100
AcDbBlockTableRecord
  2
Croce di Malta Driver leva-BodyHole
 70
    0
280
    1
281
    0
  0
BLOCK_RECORD
  5
5B
330
1
100
AcDbSymbolTableRecord
100
AcDbBlockTableRecord
  2
Trave porta disco-BodyPocket001
 70
    0
280
    1
281
    0
  0
BLOCK_RECORD
  5
5E
330
1
100
AcDbSymbolTableRecord
100
AcDbBlockTableRecord
  2
Croce di Malta-BodyPolarPattern002
 70
    0
280
    1
281
    0
  0
BLOCK_RECORD
  5
61
330
1
100
AcDbSymbolTableRecord
100
AcDbBlockTableRecord
  2
Croce di Malta-BodyPolarPattern002-0
 70
    0
280
    1
281
    0
  0
ENDTAB
  0
ENDSEC
  0
SECTION
  2
BLOCKS
  0
BLOCK
  5
20
330
1F
100
AcDbEntity
  8
0
100
AcDbBlockBegin
  2
*Model_Space
 70
    0
 10
0
 20
0
 30
0
  3
*Model_Space
  1

  0
ENDBLK
  5
21
330
1F
100
AcDbEntity
  8
0
100
AcDbBlockEnd
  0
BLOCK
  5
1C
330
1B
100
AcDbEntity
  8
0
100
AcDbBlockBegin
  2
*Paper_Space
 70
    0
 10
0
 20
0
 30
0
  3
*Paper_Space
  1

  0
ENDBLK
  5
1D
330
1F
100
AcDbEntity
  8
0
100
AcDbBlockEnd
  0
BLOCK
  5
53
330
52
100
AcDbEntity
  8
0
100
AcDbBlockBegin
  2
Piastra Superiore-BodyPocket
 70
    0
 10
0
 20
0
  3
Piastra Superiore-BodyPocket
  1

  0
LINE
  5
64
100
AcDbEntity
  8
Pocket
  6
ByLayer
 62
  256
370
   -1
100
AcDbLine
 10
-535
 20
-500
 11
535
 21
-500
  0
LINE
  5
65
100
AcDbEntity
  8
Pocket
  6
ByLayer
 62
  256
370
   -1
100
AcDbLine
 10
535
 20
-500
 11
535
 21
-500
  0
LINE
  5
66
100
AcDbEntity
  8
Pocket
  6
ByLayer
 62
  256
370
   -1
100
AcDbLine
 10
-535
 20
-500
 11
535
 21
-500
  0
LINE
  5
67
100
AcDbEntity
  8
Pocket
  6
ByLayer
 62
  256
370
   -1
100
AcDbLine
 10
-535
 20
-500
 11
-535
 21
-500
  0
LINE
  5
68
100
AcDbEntity
  8
Pocket
  6
ByLayer
 62
  256
370
   -1
100
AcDbLine
 10
-535
 20
-500
 11
-535
 21
-435
  0
LINE
  5
69
100
AcDbEntity
  8
Pocket
  6
ByLayer
 62
  256
370
   -1
100
AcDbLine
 10
-535
 20
-435
 11
-600
 21
-435
  0
LINE
  5
6A
100
AcDbEntity
  8
Pocket
  6
ByLayer
 62
  256
370
   -1
100
AcDbLine
 10
-600
 20
435
 11
-600
 21
-435
  0
LINE
  5
6B
100
AcDbEntity
  8
Pocket
  6
ByLayer
 62
  256
370
   -1
100
AcDbLine
 10
-535
 20
435
 11
-600
 21
435
  0
LINE
  5
6C
100
AcDbEntity
  8
Pocket
  6
ByLayer
 62
  256
370
   -1
100
AcDbLine
 10
-535
 20
500
 11
-535
 21
435
  0
LINE
  5
6D
100
AcDbEntity
  8
Pocket
  6
ByLayer
 62
  256
370
   -1
100
AcDbLine
 10
535
 20
500
 11
-535
 21
500
  0
LINE
  5
6E
100
AcDbEntity
  8
Pocket
  6
ByLayer
 62
  256
370
   -1
100
AcDbLine
 10
535
 20
500
 11
535
 21
435
  0
LINE
  5
6F
100
AcDbEntity
  8
Pocket
  6
ByLayer
 62
  256
370
   -1
100
AcDbLine
 10
535
 20
435
 11
600
 21
435
  0
LINE
  5
70
100
AcDbEntity
  8
Pocket
  6
ByLayer
 62
  256
370
   -1
100
AcDbLine
 10
600
 20
-435
 11
600
 21
435
  0
LINE
  5
71
100
AcDbEntity
  8
Pocket
  6
ByLayer
 62
  256
370
   -1
100
AcDbLine
 10
535
 20
-435
 11
600
 21
-435
  0
LINE
  5
72
100
AcDbEntity
  8
Pocket
  6
ByLayer
 62
  256
370
   -1
100
AcDbLine
 10
535
 20
-500
 11
535
 21
-435
  0
LINE
  5
73
100
AcDbEntity
  8
Pocket
  6
ByLayer
 62
  256
370
   -1
100
AcDbLine
 10
-535
 20
-500
 11
535
 21
-500
  0
CIRCLE
  5
74
100
AcDbEntity
  8
Pocket
  6
ByLayer
 62
  256
370
   -1
100
AcDbCircle
 10
0
 20
0
 40
355
  0
LINE
  5
75
100
AcDbEntity
  8
Pocket
  6
ByLayer
 62
  256
370
   -1
100
AcDbLine
 10
535
 20
-500
 11
535
 21
-435
  0
LINE
  5
76
100
AcDbEntity
  8
Pocket
  6
ByLayer
 62
  256
370
   -1
100
AcDbLine
 10
535
 20
-435
 11
535
 21
-435
  0
LINE
  5
77
100
AcDbEntity
  8
Pocket
  6
ByLayer
 62
  256
370
   -1
100
AcDbLine
 10
535
 20
-500
 11
535
 21
-435
  0
LINE
  5
78
100
AcDbEntity
  8
Pocket
  6
ByLayer
 62
  256
370
   -1
100
AcDbLine
 10
535
 20
-500
 11
535
 21
-500
  0
LINE
  5
79
100
AcDbEntity
  8
Pocket
  6
ByLayer
 62
  256
370
   -1
100
AcDbLine
 10
-535
 20
-500
 11
-535
 21
-435
  0
LINE
  5
7A
100
AcDbEntity
  8
Pocket
  6
ByLayer
 62
  256
370
   -1
100
AcDbLine
 10
-535
 20
-435
 11
-600
 21
-435
  0
LINE
  5
7B
100
AcDbEntity
  8
Pocket
  6
ByLayer
 62
  256
370
   -1
100
AcDbLine
 10
-600
 20
435
 11
-600
 21
-435
  0
LINE
  5
7C
100
AcDbEntity
  8
Pocket
  6
ByLayer
 62
  256
370
   -1
100
AcDbLine
 10
-535
 20
435
 11
-600
 21
435
  0
LINE
  5
7D
100
AcDbEntity
  8
Pocket
  6
ByLayer
 62
  256
370
   -1
100
AcDbLine
 10
-535
 20
500
 11
-535
 21
435
  0
LINE
  5
7E
100
AcDbEntity
  8
Pocket
  6
ByLayer
 62
  256
370
   -1
100
AcDbLine
 10
535
 20
500
 11
-535
 21
500
  0
LINE
  5
7F
100
AcDbEntity
  8
Pocket
  6
ByLayer
 62
  256
370
   -1
100
AcDbLine
 10
535
 20
500
 11
535
 21
435
  0
LINE
  5
80
100
AcDbEntity
  8
Pocket
  6
ByLayer
 62
  256
370
   -1
100
AcDbLine
 10
535
 20
435
 11
600
 21
435
  0
LINE
  5
81
100
AcDbEntity
  8
Pocket
  6
ByLayer
 62
  256
370
   -1
100
AcDbLine
 10
600
 20
-435
 11
600
 21
435
  0
LINE
  5
82
100
AcDbEntity
  8
Pocket
  6
ByLayer
 62
  256
370
   -1
100
AcDbLine
 10
535
 20
-435
 11
600
 21
-435
  0
LINE
  5
83
100
AcDbEntity
  8
Pocket
  6
ByLayer
 62
  256
370
   -1
100
AcDbLine
 10
535
 20
-500
 11
535
 21
-435
  0
LINE
  5
84
100
AcDbEntity
  8
Pocket
  6
ByLayer
 62
  256
370
   -1
100
AcDbLine
 10
-535
 20
-500
 11
535
 21
-500
  0
CIRCLE
  5
85
100
AcDbEntity
  8
Pocket
  6
ByLayer
 62
  256
370
   -1
100
AcDbCircle
 10
0
 20
0
 40
355
  0
LINE
  5
86
100
AcDbEntity
  8
Pocket
  6
ByLayer
 62
  256
370
   -1
100
AcDbLine
 10
-535
 20
-500
 11
-535
 21
-435
  0
LINE
  5
87
100
AcDbEntity
  8
Pocket
  6
ByLayer
 62
  256
370
   -1
100
AcDbLine
 10
-535
 20
-435
 11
-535
 21
-435
  0
LINE
  5
88
100
AcDbEntity
  8
Pocket
  6
ByLayer
 62
  256
370
   -1
100
AcDbLine
 10
-535
 20
-500
 11
-535
 21
-435
  0
LINE
  5
89
100
AcDbEntity
  8
Pocket
  6
ByLayer
 62
  256
370
   -1
100
AcDbLine
 10
-535
 20
-500
 11
-535
 21
-500
  0
LINE
  5
8A
100
AcDbEntity
  8
Pocket
  6
ByLayer
 62
  256
370
   -1
100
AcDbLine
 10
-535
 20
-435
 11
-600
 21
-435
  0
LINE
  5
8B
100
AcDbEntity
  8
Pocket
  6
ByLayer
 62
  256
370
   -1
100
AcDbLine
 10
-600
 20
-435
 11
-600
 21
-435
  0
LINE
  5
8C
100
AcDbEntity
  8
Pocket
  6
ByLayer
 62
  256
370
   -1
100
AcDbLine
 10
-535
 20
-435
 11
-600
 21
-435
  0
LINE
  5
8D
100
AcDbEntity
  8
Pocket
  6
ByLayer
 62
  256
370
   -1
100
AcDbLine
 10
-535
 20
-435
 11
-535
 21
-435
  0
LINE
  5
8E
100
AcDbEntity
  8
Pocket
  6
ByLayer
 62
  256
370
   -1
100
AcDbLine
 10
-600
 20
435
 11
-600
 21
-435
  0
LINE
  5
8F
100
AcDbEntity
  8
Pocket
  6
ByLayer
 62
  256
370
   -1
100
AcDbLine
 10
-600
 20
-435
 11
-600
 21
-435
  0
LINE
  5
90
100
AcDbEntity
  8
Pocket
  6
ByLayer
 62
  256
370
   -1
100
AcDbLine
 10
-600
 20
435
 11
-600
 21
-435
  0
LINE
  5
91
100
AcDbEntity
  8
Pocket
  6
ByLayer
 62
  256
370
   -1
100
AcDbLine
 10
-600
 20
435
 11
-600
 21
435
  0
LINE
  5
92
100
AcDbEntity
  8
Pocket
  6
ByLayer
 62
  256
370
   -1
100
AcDbLine
 10
-535
 20
435
 11
-600
 21
435
  0
LINE
  5
93
100
AcDbEntity
  8
Pocket
  6
ByLayer
 62
  256
370
   -1
100
AcDbLine
 10
-600
 20
435
 11
-600
 21
435
  0
LINE
  5
94
100
AcDbEntity
  8
Pocket
  6
ByLayer
 62
  256
370
   -1
100
AcDbLine
 10
-535
 20
435
 11
-600
 21
435
  0
LINE
  5
95
100
AcDbEntity
  8
Pocket
  6
ByLayer
 62
  256
370
   -1
100
AcDbLine
 10
-535
 20
435
 11
-535
 21
435
  0
LINE
  5
96
100
AcDbEntity
  8
Pocket
  6
ByLayer
 62
  256
370
   -1
100
AcDbLine
 10
-535
 20
500
 11
-535
 21
435
  0
LINE
  5
97
100
AcDbEntity
  8
Pocket
  6
ByLayer
 62
  256
370
   -1
100
AcDbLine
 10
-535
 20
435
 11
-535
 21
435
  0
LINE
  5
98
100
AcDbEntity
  8
Pocket
  6
ByLayer
 62
  256
370
   -1
100
AcDbLine
 10
-535
 20
500
 11
-535
 21
435
  0
LINE
  5
99
100
AcDbEntity
  8
Pocket
  6
ByLayer
 62
  256
370
   -1
100
AcDbLine
 10
-535
 20
500
 11
-535
 21
500
  0
LINE
  5
9A
100
AcDbEntity
  8
Pocket
  6
ByLayer
 62
  256
370
   -1
100
AcDbLine
 10
535
 20
500
 11
-535
 21
500
  0
LINE
  5
9B
100
AcDbEntity
  8
Pocket
  6
ByLayer
 62
  256
370
   -1
100
AcDbLine
 10
-535
 20
500
 11
-535
 21
500
  0
LINE
  5
9C
100
AcDbEntity
  8
Pocket
  6
ByLayer
 62
  256
370
   -1
100
AcDbLine
 10
535
 20
500
 11
-535
 21
500
  0
LINE
  5
9D
100
AcDbEntity
  8
Pocket
  6
ByLayer
 62
  256
370
   -1
100
AcDbLine
 10
535
 20
500
 11
535
 21
500
  0
LINE
  5
9E
100
AcDbEntity
  8
Pocket
  6
ByLayer
 62
  256
370
   -1
100
AcDbLine
 10
535
 20
500
 11
535
 21
435
  0
LINE
  5
9F
100
AcDbEntity
  8
Pocket
  6
ByLayer
 62
  256
370
   -1
100
AcDbLine
 10
535
 20
435
 11
535
 21
435
  0
LINE
  5
A0
100
AcDbEntity
  8
Pocket
  6
ByLayer
 62
  256
370
   -1
100
AcDbLine
 10
535
 20
500
 11
535
 21
435
  0
LINE
  5
A1
100
AcDbEntity
  8
Pocket
  6
ByLayer
 62
  256
370
   -1
100
AcDbLine
 10
535
 20
500
 11
535
 21
500
  0
LINE
  5
A2
100
AcDbEntity
  8
Pocket
  6
ByLayer
 62
  256
370
   -1
100
AcDbLine
 10
535
 20
435
 11
600
 21
435
  0
LINE
  5
A3
100
AcDbEntity
  8
Pocket
  6
ByLayer
 62
  256
370
   -1
100
AcDbLine
 10
600
 20
435
 11
600
 21
435
  0
LINE
  5
A4
100
AcDbEntity
  8
Pocket
  6
ByLayer
 62
  256
370
   -1
100
AcDbLine
 10
535
 20
435
 11
600
 21
435
  0
LINE
  5
A5
100
AcDbEntity
  8
Pocket
  6
ByLayer
 62
  256
370
   -1
100
AcDbLine
 10
535
 20
435
 11
535
 21
435
  0
LINE
  5
A6
100
AcDbEntity
  8
Pocket
  6
ByLayer
 62
  256
370
   -1
100
AcDbLine
 10
600
 20
-435
 11
600
 21
435
  0
LINE
  5
A7
100
AcDbEntity
  8
Pocket
  6
ByLayer
 62
  256
370
   -1
100
AcDbLine
 10
600
 20
435
 11
600
 21
435
  0
LINE
  5
A8
100
AcDbEntity
  8
Pocket
  6
ByLayer
 62
  256
370
   -1
100
AcDbLine
 10
600
 20
-435
 11
600
 21
435
  0
LINE
  5
A9
100
AcDbEntity
  8
Pocket
  6
ByLayer
 62
  256
370
   -1
100
AcDbLine
 10
600
 20
-435
 11
600
 21
-435
  0
LINE
  5
AA
100
AcDbEntity
  8
Pocket
  6
ByLayer
 62
  256
370
   -1
100
AcDbLine
 10
535
 20
-435
 11
600
 21
-435
  0
LINE
  5
AB
100
AcDbEntity
  8
Pocket
  6
ByLayer
 62
  256
370
   -1
100
AcDbLine
 10
600
 20
-435
 11
600
 21
-435
  0
LINE
  5
AC
100
AcDbEntity
  8
Pocket
  6
ByLayer
 62
  256
370
   -1
100
AcDbLine
 10
535
 20
-435
 11
600
 21
-435
  0
LINE
  5
AD
100
AcDbEntity
  8
Pocket
  6
ByLayer
 62
  256
370
   -1
100
AcDbLine
 10
535
 20
-435
 11
535
 21
-435
  0
LINE
  5
AE
100
AcDbEntity
  8
Pocket
  6
ByLayer
 62
  256
370
   -1
100
AcDbLine
 10
355
 20
0
 11
355
 21
0
  0
LINE
  5
AF
100
AcDbEntity
  8
Pocket
  6
ByLayer
 62
  256
370
   -1
100
AcDbLine
 10
355
 20
0
 11
355
 21
0
  0
CIRCLE
  5
B0
100
AcDbEntity
  8
Pocket
  6
ByLayer
 62
  256
370
   -1
100
AcDbCircle
 10
0
 20
0
 40
355
  0
CIRCLE
  5
B1
100
AcDbEntity
  8
Pocket
  6
ByLayer
 62
  256
370
   -1
100
AcDbCircle
 10
0
 20
0
 40
355
  0
ENDBLK
  5
54
330
52
100
AcDbEntity
  8
0
100
AcDbBlockEnd
  0
BLOCK
  5
56
330
55
100
AcDbEntity
  8
0
100
AcDbBlockBegin
  2
Piatto rotante-BodyPolarPattern002
 70
    0
 10
0
 20
0
  3
Piatto rotante-BodyPolarPattern002
  1

  0
LINE
  5
B2
100
AcDbEntity
  8
PolarPattern002
  6
ByLayer
 62
  256
370
   -1
100
AcDbLine
 10
350
 20
0
 11
350
 21
0
  0
LINE
  5
B3
100
AcDbEntity
  8
PolarPattern002
  6
ByLayer
 62
  256
370
   -1
100
AcDbLine
 10
350
 20
0
 11
350
 21
0
  0
CIRCLE
  5
B4
100
AcDbEntity
  8
PolarPattern002
  6
ByLayer
 62
  256
370
   -1
100
AcDbCircle
 10
0
 20
0
 40
350
  0
CIRCLE
  5
B5
100
AcDbEntity
  8
PolarPattern002
  6
ByLayer
 62
  256
370
   -1
100
AcDbCircle
 10
0
 20
0
 40
350
  0
CIRCLE
  5
B6
100
AcDbEntity
  8
PolarPattern002
  6
ByLayer
 62
  256
370
   -1
100
AcDbCircle
 10
0
 20
0
 40
350
  0
CIRCLE
  5
B7
100
AcDbEntity
  8
PolarPattern002
  6
ByLayer
 62
  256
370
   -1
100
AcDbCircle
 10
-212.132
 20
-212.132
 40
20
  0
CIRCLE
  5
B8
100
AcDbEntity
  8
PolarPattern002
  6
ByLayer
 62
  256
370
   -1
100
AcDbCircle
 10
-114.805
 20
-277.164
 40
20
  0
CIRCLE
  5
B9
100
AcDbEntity
  8
PolarPattern002
  6
ByLayer
 62
  256
370
   -1
100
AcDbCircle
 10
-277.164
 20
-114.805
 40
20
  0
ARC
  5
BA
100
AcDbEntity
  8
PolarPattern002
  6
ByLayer
 62
  256
370
   -1
100
AcDbCircle
 10
-91.9239
 20
-91.9239
 40
15
100
AcDbArc
 50
-24.8945
 51
114.894
  0
LINE
  5
BB
100
AcDbEntity
  8
PolarPattern002
  6
ByLayer
 62
  256
370
   -1
100
AcDbLine
 10
-78.3176
 20
-98.2381
 11
-109.941
 21
-166.383
  0
LINE
  5
BC
100
AcDbEntity
  8
PolarPattern002
  6
ByLayer
 62
  256
370
   -1
100
AcDbLine
 10
-98.2381
 20
-78.3176
 11
-166.383
 21
-109.941
  0
ARC
  5
BD
100
AcDbEntity
  8
PolarPattern002
  6
ByLayer
 62
  256
370
   -1
100
AcDbCircle
 10
-148.492
 20
-148.492
 40
42.5
100
AcDbArc
 50
114.894
 51
-24.8945
  0
CIRCLE
  5
BE
100
AcDbEntity
  8
PolarPattern002
  6
ByLayer
 62
  256
370
   -1
100
AcDbCircle
 10
-56.5685
 20
-56.5685
 40
5.05
  0
CIRCLE
  5
BF
100
AcDbEntity
  8
PolarPattern002
  6
ByLayer
 62
  256
370
   -1
100
AcDbCircle
 10
0
 20
-300
 40
20
  0
CIRCLE
  5
C0
100
AcDbEntity
  8
PolarPattern002
  6
ByLayer
 62
  256
370
   -1
100
AcDbCircle
 10
114.805
 20
-277.164
 40
20
  0
ARC
  5
C1
100
AcDbEntity
  8
PolarPattern002
  6
ByLayer
 62
  256
370
   -1
100
AcDbCircle
 10
-1.592e-14
 20
-130
 40
15
100
AcDbArc
 50
20.1055
 51
159.894
  0
LINE
  5
C2
100
AcDbEntity
  8
PolarPattern002
  6
ByLayer
 62
  256
370
   -1
100
AcDbLine
 10
14.0859
 20
-124.844
 11
39.9101
 21
-195.391
  0
LINE
  5
C3
100
AcDbEntity
  8
PolarPattern002
  6
ByLayer
 62
  256
370
   -1
100
AcDbLine
 10
-14.0859
 20
-124.844
 11
-39.9101
 21
-195.391
  0
ARC
  5
C4
100
AcDbEntity
  8
PolarPattern002
  6
ByLayer
 62
  256
370
   -1
100
AcDbCircle
 10
-2.572e-14
 20
-210
 40
42.5
100
AcDbArc
 50
159.894
 51
20.1055
  0
CIRCLE
  5
C5
100
AcDbEntity
  8
PolarPattern002
  6
ByLayer
 62
  256
370
   -1
100
AcDbCircle
 10
212.132
 20
-212.132
 40
20
  0
ARC
  5
C6
100
AcDbEntity
  8
PolarPattern002
  6
ByLayer
 62
  256
370
   -1
100
AcDbCircle
 10
91.9239
 20
-91.9239
 40
15
100
AcDbArc
 50
65.10550000000001
 51
-155.106
  0
LINE
  5
C7
100
AcDbEntity
  8
PolarPattern002
  6
ByLayer
 62
  256
370
   -1
100
AcDbLine
 10
98.2381
 20
-78.3176
 11
166.383
 21
-109.941
  0
LINE
  5
C8
100
AcDbEntity
  8
PolarPattern002
  6
ByLayer
 62
  256
370
   -1
100
AcDbLine
 10
78.3176
 20
-98.2381
 11
109.941
 21
-166.383
  0
ARC
  5
C9
100
AcDbEntity
  8
PolarPattern002
  6
ByLayer
 62
  256
370
   -1
100
AcDbCircle
 10
148.492
 20
-148.492
 40
42.5
100
AcDbArc
 50
-155.106
 51
65.10550000000001
  0
CIRCLE
  5
CA
100
AcDbEntity
  8
PolarPattern002
  6
ByLayer
 62
  256
370
   -1
100
AcDbCircle
 10
-9.8e-15
 20
-80
 40
5.05
  0
CIRCLE
  5
CB
100
AcDbEntity
  8
PolarPattern002
  6
ByLayer
 62
  256
370
   -1
100
AcDbCircle
 10
56.5685
 20
-56.5685
 40
5.05
  0
CIRCLE
  5
CC
100
AcDbEntity
  8
PolarPattern002
  6
ByLayer
 62
  256
370
   -1
100
AcDbCircle
 10
80
 20
-1.776e-14
 40
5.05
  0
CIRCLE
  5
CD
100
AcDbEntity
  8
PolarPattern002
  6
ByLayer
 62
  256
370
   -1
100
AcDbCircle
 10
277.164
 20
-114.805
 40
20
  0
ARC
  5
CE
100
AcDbEntity
  8
PolarPattern002
  6
ByLayer
 62
  256
370
   -1
100
AcDbCircle
 10
130
 20
-2.887e-14
 40
15
100
AcDbArc
 50
110.106
 51
-110.106
  0
LINE
  5
CF
100
AcDbEntity
  8
PolarPattern002
  6
ByLayer
 62
  256
370
   -1
100
AcDbLine
 10
124.844
 20
14.0859
 11
195.391
 21
39.9101
  0
LINE
  5
D0
100
AcDbEntity
  8
PolarPattern002
  6
ByLayer
 62
  256
370
   -1
100
AcDbLine
 10
124.844
 20
-14.0859
 11
195.391
 21
-39.9101
  0
ARC
  5
D1
100
AcDbEntity
  8
PolarPattern002
  6
ByLayer
 62
  256
370
   -1
100
AcDbCircle
 10
210
 20
-4.663e-14
 40
42.5
100
AcDbArc
 50
-110.106
 51
110.106
  0
CIRCLE
  5
D2
100
AcDbEntity
  8
PolarPattern002
  6
ByLayer
 62
  256
370
   -1
100
AcDbCircle
 10
300
 20
0
 40
20
  0
CIRCLE
  5
D3
100
AcDbEntity
  8
PolarPattern002
  6
ByLayer
 62
  256
370
   -1
100
AcDbCircle
 10
-300
 20
0
 40
20
  0
ARC
  5
D4
100
AcDbEntity
  8
PolarPattern002
  6
ByLayer
 62
  256
370
   -1
100
AcDbCircle
 10
-130
 20
1.443e-14
 40
15
100
AcDbArc
 50
-69.89449999999999
 51
69.89449999999999
  0
LINE
  5
D5
100
AcDbEntity
  8
PolarPattern002
  6
ByLayer
 62
  256
370
   -1
100
AcDbLine
 10
-124.844
 20
-14.0859
 11
-195.391
 21
-39.9101
  0
LINE
  5
D6
100
AcDbEntity
  8
PolarPattern002
  6
ByLayer
 62
  256
370
   -1
100
AcDbLine
 10
-124.844
 20
14.0859
 11
-195.391
 21
39.9101
  0
ARC
  5
D7
100
AcDbEntity
  8
PolarPattern002
  6
ByLayer
 62
  256
370
   -1
100
AcDbCircle
 10
-210
 20
2.331e-14
 40
42.5
100
AcDbArc
 50
69.89449999999999
 51
-69.89449999999999
  0
CIRCLE
  5
D8
100
AcDbEntity
  8
PolarPattern002
  6
ByLayer
 62
  256
370
   -1
100
AcDbCircle
 10
-277.164
 20
114.805
 40
20
  0
CIRCLE
  5
D9
100
AcDbEntity
  8
PolarPattern002
  6
ByLayer
 62
  256
370
   -1
100
AcDbCircle
 10
-80
 20
8.880000000000001e-15
 40
5.05
  0
CIRCLE
  5
DA
100
AcDbEntity
  8
PolarPattern002
  6
ByLayer
 62
  256
370
   -1
100
AcDbCircle
 10
-56.5685
 20
56.5685
 40
5.05
  0
ARC
  5
DB
100
AcDbEntity
  8
PolarPattern002
  6
ByLayer
 62
  256
370
   -1
100
AcDbCircle
 10
-91.9239
 20
91.9239
 40
15
100
AcDbArc
 50
-114.894
 51
24.8945
  0
LINE
  5
DC
100
AcDbEntity
  8
PolarPattern002
  6
ByLayer
 62
  256
370
   -1
100
AcDbLine
 10
-98.2381
 20
78.3176
 11
-166.383
 21
109.941
  0
LINE
  5
DD
100
AcDbEntity
  8
PolarPattern002
  6
ByLayer
 62
  256
370
   -1
100
AcDbLine
 10
-78.3176
 20
98.2381
 11
-109.941
 21
166.383
  0
ARC
  5
DE
100
AcDbEntity
  8
PolarPattern002
  6
ByLayer
 62
  256
370
   -1
100
AcDbCircle
 10
-148.492
 20
148.492
 40
42.5
100
AcDbArc
 50
24.8945
 51
-114.894
  0
CIRCLE
  5
DF
100
AcDbEntity
  8
PolarPattern002
  6
ByLayer
 62
  256
370
   -1
100
AcDbCircle
 10
-212.132
 20
212.132
 40
20
  0
CIRCLE
  5
E0
100
AcDbEntity
  8
PolarPattern002
  6
ByLayer
 62
  256
370
   -1
100
AcDbCircle
 10
-114.805
 20
277.164
 40
20
  0
CIRCLE
  5
E1
100
AcDbEntity
  8
PolarPattern002
  6
ByLayer
 62
  256
370
   -1
100
AcDbCircle
 10
0
 20
0
 40
14
  0
CIRCLE
  5
E2
100
AcDbEntity
  8
PolarPattern002
  6
ByLayer
 62
  256
370
   -1
100
AcDbCircle
 10
56.5685
 20
56.5685
 40
5.05
  0
CIRCLE
  5
E3
100
AcDbEntity
  8
PolarPattern002
  6
ByLayer
 62
  256
370
   -1
100
AcDbCircle
 10
0
 20
80
 40
5.05
  0
ARC
  5
E4
100
AcDbEntity
  8
PolarPattern002
  6
ByLayer
 62
  256
370
   -1
100
AcDbCircle
 10
91.9239
 20
91.9239
 40
15
100
AcDbArc
 50
155.106
 51
-65.10550000000001
  0
LINE
  5
E5
100
AcDbEntity
  8
PolarPattern002
  6
ByLayer
 62
  256
370
   -1
100
AcDbLine
 10
98.2381
 20
78.3176
 11
166.383
 21
109.941
  0
ARC
  5
E6
100
AcDbEntity
  8
PolarPattern002
  6
ByLayer
 62
  256
370
   -1
100
AcDbCircle
 10
148.492
 20
148.492
 40
42.5
100
AcDbArc
 50
-65.10550000000001
 51
155.106
  0
LINE
  5
E7
100
AcDbEntity
  8
PolarPattern002
  6
ByLayer
 62
  256
370
   -1
100
AcDbLine
 10
78.3176
 20
98.2381
 11
109.941
 21
166.383
  0
CIRCLE
  5
E8
100
AcDbEntity
  8
PolarPattern002
  6
ByLayer
 62
  256
370
   -1
100
AcDbCircle
 10
277.164
 20
114.805
 40
20
  0
ARC
  5
E9
100
AcDbEntity
  8
PolarPattern002
  6
ByLayer
 62
  256
370
   -1
100
AcDbCircle
 10
0
 20
130
 40
15
100
AcDbArc
 50
-159.894
 51
-20.1055
  0
LINE
  5
EA
100
AcDbEntity
  8
PolarPattern002
  6
ByLayer
 62
  256
370
   -1
100
AcDbLine
 10
-14.0859
 20
124.844
 11
-39.9101
 21
195.391
  0
LINE
  5
EB
100
AcDbEntity
  8
PolarPattern002
  6
ByLayer
 62
  256
370
   -1
100
AcDbLine
 10
14.0859
 20
124.844
 11
39.9101
 21
195.391
  0
ARC
  5
EC
100
AcDbEntity
  8
PolarPattern002
  6
ByLayer
 62
  256
370
   -1
100
AcDbCircle
 10
0
 20
210
 40
42.5
100
AcDbArc
 50
-20.1055
 51
-159.894
  0
CIRCLE
  5
ED
100
AcDbEntity
  8
PolarPattern002
  6
ByLayer
 62
  256
370
   -1
100
AcDbCircle
 10
0
 20
300
 40
20
  0
CIRCLE
  5
EE
100
AcDbEntity
  8
PolarPattern002
  6
ByLayer
 62
  256
370
   -1
100
AcDbCircle
 10
114.805
 20
277.164
 40
20
  0
CIRCLE
  5
EF
100
AcDbEntity
  8
PolarPattern002
  6
ByLayer
 62
  256
370
   -1
100
AcDbCircle
 10
212.132
 20
212.132
 40
20
  0
CIRCLE
  5
F0
100
AcDbEntity
  8
PolarPattern002
  6
ByLayer
 62
  256
370
   -1
100
AcDbCircle
 10
0
 20
0
 40
350
  0
CIRCLE
  5
F1
100
AcDbEntity
  8
PolarPattern002
  6
ByLayer
 62
  256
370
   -1
100
AcDbCircle
 10
-212.132
 20
-212.132
 40
20
  0
CIRCLE
  5
F2
100
AcDbEntity
  8
PolarPattern002
  6
ByLayer
 62
  256
370
   -1
100
AcDbCircle
 10
-114.805
 20
-277.164
 40
20
  0
CIRCLE
  5
F3
100
AcDbEntity
  8
PolarPattern002
  6
ByLayer
 62
  256
370
   -1
100
AcDbCircle
 10
-277.164
 20
-114.805
 40
20
  0
ARC
  5
F4
100
AcDbEntity
  8
PolarPattern002
  6
ByLayer
 62
  256
370
   -1
100
AcDbCircle
 10
-91.9239
 20
-91.9239
 40
15
100
AcDbArc
 50
-24.8945
 51
114.894
  0
LINE
  5
F5
100
AcDbEntity
  8
PolarPattern002
  6
ByLayer
 62
  256
370
   -1
100
AcDbLine
 10
-78.3176
 20
-98.2381
 11
-109.941
 21
-166.383
  0
LINE
  5
F6
100
AcDbEntity
  8
PolarPattern002
  6
ByLayer
 62
  256
370
   -1
100
AcDbLine
 10
-98.2381
 20
-78.3176
 11
-166.383
 21
-109.941
  0
ARC
  5
F7
100
AcDbEntity
  8
PolarPattern002
  6
ByLayer
 62
  256
370
   -1
100
AcDbCircle
 10
-148.492
 20
-148.492
 40
42.5
100
AcDbArc
 50
114.894
 51
-24.8945
  0
CIRCLE
  5
F8
100
AcDbEntity
  8
PolarPattern002
  6
ByLayer
 62
  256
370
   -1
100
AcDbCircle
 10
-56.5685
 20
-56.5685
 40
5.05
  0
CIRCLE
  5
F9
100
AcDbEntity
  8
PolarPattern002
  6
ByLayer
 62
  256
370
   -1
100
AcDbCircle
 10
0
 20
-300
 40
20
  0
CIRCLE
  5
FA
100
AcDbEntity
  8
PolarPattern002
  6
ByLayer
 62
  256
370
   -1
100
AcDbCircle
 10
114.805
 20
-277.164
 40
20
  0
ARC
  5
FB
100
AcDbEntity
  8
PolarPattern002
  6
ByLayer
 62
  256
370
   -1
100
AcDbCircle
 10
0
 20
-130
 40
15
100
AcDbArc
 50
20.1055
 51
159.894
  0
LINE
  5
FC
100
AcDbEntity
  8
PolarPattern002
  6
ByLayer
 62
  256
370
   -1
100
AcDbLine
 10
14.0859
 20
-124.844
 11
39.9101
 21
-195.391
  0
LINE
  5
FD
100
AcDbEntity
  8
PolarPattern002
  6
ByLayer
 62
  256
370
   -1
100
AcDbLine
 10
-14.0859
 20
-124.844
 11
-39.9101
 21
-195.391
  0
ARC
  5
FE
100
AcDbEntity
  8
PolarPattern002
  6
ByLayer
 62
  256
370
   -1
100
AcDbCircle
 10
0
 20
-210
 40
42.5
100
AcDbArc
 50
159.894
 51
20.1055
  0
CIRCLE
  5
FF
100
AcDbEntity
  8
PolarPattern002
  6
ByLayer
 62
  256
370
   -1
100
AcDbCircle
 10
212.132
 20
-212.132
 40
20
  0
ARC
  5
100
100
AcDbEntity
  8
PolarPattern002
  6
ByLayer
 62
  256
370
   -1
100
AcDbCircle
 10
91.9239
 20
-91.9239
 40
15
100
AcDbArc
 50
65.10550000000001
 51
-155.106
  0
LINE
  5
101
100
AcDbEntity
  8
PolarPattern002
  6
ByLayer
 62
  256
370
   -1
100
AcDbLine
 10
98.2381
 20
-78.3176
 11
166.383
 21
-109.941
  0
LINE
  5
102
100
AcDbEntity
  8
PolarPattern002
  6
ByLayer
 62
  256
370
   -1
100
AcDbLine
 10
78.3176
 20
-98.2381
 11
109.941
 21
-166.383
  0
ARC
  5
103
100
AcDbEntity
  8
PolarPattern002
  6
ByLayer
 62
  256
370
   -1
100
AcDbCircle
 10
148.492
 20
-148.492
 40
42.5
100
AcDbArc
 50
-155.106
 51
65.10550000000001
  0
CIRCLE
  5
104
100
AcDbEntity
  8
PolarPattern002
  6
ByLayer
 62
  256
370
   -1
100
AcDbCircle
 10
0
 20
-80
 40
5.05
  0
CIRCLE
  5
105
100
AcDbEntity
  8
PolarPattern002
  6
ByLayer
 62
  256
370
   -1
100
AcDbCircle
 10
56.5685
 20
-56.5685
 40
5.05
  0
CIRCLE
  5
106
100
AcDbEntity
  8
PolarPattern002
  6
ByLayer
 62
  256
370
   -1
100
AcDbCircle
 10
80
 20
0
 40
5.05
  0
CIRCLE
  5
107
100
AcDbEntity
  8
PolarPattern002
  6
ByLayer
 62
  256
370
   -1
100
AcDbCircle
 10
277.164
 20
-114.805
 40
20
  0
ARC
  5
108
100
AcDbEntity
  8
PolarPattern002
  6
ByLayer
 62
  256
370
   -1
100
AcDbCircle
 10
130
 20
0
 40
15
100
AcDbArc
 50
110.106
 51
-110.106
  0
LINE
  5
109
100
AcDbEntity
  8
PolarPattern002
  6
ByLayer
 62
  256
370
   -1
100
AcDbLine
 10
124.844
 20
14.0859
 11
195.391
 21
39.9101
  0
LINE
  5
10A
100
AcDbEntity
  8
PolarPattern002
  6
ByLayer
 62
  256
370
   -1
100
AcDbLine
 10
124.844
 20
-14.0859
 11
195.391
 21
-39.9101
  0
ARC
  5
10B
100
AcDbEntity
  8
PolarPattern002
  6
ByLayer
 62
  256
370
   -1
100
AcDbCircle
 10
210
 20
0
 40
42.5
100
AcDbArc
 50
-110.106
 51
110.106
  0
CIRCLE
  5
10C
100
AcDbEntity
  8
PolarPattern002
  6
ByLayer
 62
  256
370
   -1
100
AcDbCircle
 10
300
 20
0
 40
20
  0
CIRCLE
  5
10D
100
AcDbEntity
  8
PolarPattern002
  6
ByLayer
 62
  256
370
   -1
100
AcDbCircle
 10
-300
 20
0
 40
20
  0
ARC
  5
10E
100
AcDbEntity
  8
PolarPattern002
  6
ByLayer
 62
  256
370
   -1
100
AcDbCircle
 10
-130
 20
0
 40
15
100
AcDbArc
 50
-69.89449999999999
 51
69.89449999999999
  0
LINE
  5
10F
100
AcDbEntity
  8
PolarPattern002
  6
ByLayer
 62
  256
370
   -1
100
AcDbLine
 10
-124.844
 20
-14.0859
 11
-195.391
 21
-39.9101
  0
LINE
  5
110
100
AcDbEntity
  8
PolarPattern002
  6
ByLayer
 62
  256
370
   -1
100
AcDbLine
 10
-124.844
 20
14.0859
 11
-195.391
 21
39.9101
  0
ARC
  5
111
100
AcDbEntity
  8
PolarPattern002
  6
ByLayer
 62
  256
370
   -1
100
AcDbCircle
 10
-210
 20
0
 40
42.5
100
AcDbArc
 50
69.89449999999999
 51
-69.89449999999999
  0
CIRCLE
  5
112
100
AcDbEntity
  8
PolarPattern002
  6
ByLayer
 62
  256
370
   -1
100
AcDbCircle
 10
-277.164
 20
114.805
 40
20
  0
CIRCLE
  5
113
100
AcDbEntity
  8
PolarPattern002
  6
ByLayer
 62
  256
370
   -1
100
AcDbCircle
 10
-80
 20
0
 40
5.05
  0
CIRCLE
  5
114
100
AcDbEntity
  8
PolarPattern002
  6
ByLayer
 62
  256
370
   -1
100
AcDbCircle
 10
-56.5685
 20
56.5685
 40
5.05
  0
ARC
  5
115
100
AcDbEntity
  8
PolarPattern002
  6
ByLayer
 62
  256
370
   -1
100
AcDbCircle
 10
-91.9239
 20
91.9239
 40
15
100
AcDbArc
 50
-114.894
 51
24.8945
  0
LINE
  5
116
100
AcDbEntity
  8
PolarPattern002
  6
ByLayer
 62
  256
370
   -1
100
AcDbLine
 10
-98.2381
 20
78.3176
 11
-166.383
 21
109.941
  0
LINE
  5
117
100
AcDbEntity
  8
PolarPattern002
  6
ByLayer
 62
  256
370
   -1
100
AcDbLine
 10
-78.3176
 20
98.2381
 11
-109.941
 21
166.383
  0
ARC
  5
118
100
AcDbEntity
  8
PolarPattern002
  6
ByLayer
 62
  256
370
   -1
100
AcDbCircle
 10
-148.492
 20
148.492
 40
42.5
100
AcDbArc
 50
24.8945
 51
-114.894
  0
CIRCLE
  5
119
100
AcDbEntity
  8
PolarPattern002
  6
ByLayer
 62
  256
370
   -1
100
AcDbCircle
 10
-212.132
 20
212.132
 40
20
  0
CIRCLE
  5
11A
100
AcDbEntity
  8
PolarPattern002
  6
ByLayer
 62
  256
370
   -1
100
AcDbCircle
 10
-114.805
 20
277.164
 40
20
  0
CIRCLE
  5
11B
100
AcDbEntity
  8
PolarPattern002
  6
ByLayer
 62
  256
370
   -1
100
AcDbCircle
 10
0
 20
0
 40
14
  0
CIRCLE
  5
11C
100
AcDbEntity
  8
PolarPattern002
  6
ByLayer
 62
  256
370
   -1
100
AcDbCircle
 10
56.5685
 20
56.5685
 40
5.05
  0
CIRCLE
  5
11D
100
AcDbEntity
  8
PolarPattern002
  6
ByLayer
 62
  256
370
   -1
100
AcDbCircle
 10
0
 20
80
 40
5.05
  0
ARC
  5
11E
100
AcDbEntity
  8
PolarPattern002
  6
ByLayer
 62
  256
370
   -1
100
AcDbCircle
 10
91.9239
 20
91.9239
 40
15
100
AcDbArc
 50
155.106
 51
-65.10550000000001
  0
LINE
  5
11F
100
AcDbEntity
  8
PolarPattern002
  6
ByLayer
 62
  256
370
   -1
100
AcDbLine
 10
98.2381
 20
78.3176
 11
166.383
 21
109.941
  0
ARC
  5
120
100
AcDbEntity
  8
PolarPattern002
  6
ByLayer
 62
  256
370
   -1
100
AcDbCircle
 10
148.492
 20
148.492
 40
42.5
100
AcDbArc
 50
-65.10550000000001
 51
155.106
  0
LINE
  5
121
100
AcDbEntity
  8
PolarPattern002
  6
ByLayer
 62
  256
370
   -1
100
AcDbLine
 10
78.3176
 20
98.2381
 11
109.941
 21
166.383
  0
CIRCLE
  5
122
100
AcDbEntity
  8
PolarPattern002
  6
ByLayer
 62
  256
370
   -1
100
AcDbCircle
 10
277.164
 20
114.805
 40
20
  0
ARC
  5
123
100
AcDbEntity
  8
PolarPattern002
  6
ByLayer
 62
  256
370
   -1
100
AcDbCircle
 10
0
 20
130
 40
15
100
AcDbArc
 50
-159.894
 51
-20.1055
  0
LINE
  5
124
100
AcDbEntity
  8
PolarPattern002
  6
ByLayer
 62
  256
370
   -1
100
AcDbLine
 10
-14.0859
 20
124.844
 11
-39.9101
 21
195.391
  0
LINE
  5
125
100
AcDbEntity
  8
PolarPattern002
  6
ByLayer
 62
  256
370
   -1
100
AcDbLine
 10
14.0859
 20
124.844
 11
39.9101
 21
195.391
  0
ARC
  5
126
100
AcDbEntity
  8
PolarPattern002
  6
ByLayer
 62
  256
370
   -1
100
AcDbCircle
 10
0
 20
210
 40
42.5
100
AcDbArc
 50
-20.1055
 51
-159.894
  0
CIRCLE
  5
127
100
AcDbEntity
  8
PolarPattern002
  6
ByLayer
 62
  256
370
   -1
100
AcDbCircle
 10
0
 20
300
 40
20
  0
CIRCLE
  5
128
100
AcDbEntity
  8
PolarPattern002
  6
ByLayer
 62
  256
370
   -1
100
AcDbCircle
 10
114.805
 20
277.164
 40
20
  0
CIRCLE
  5
129
100
AcDbEntity
  8
PolarPattern002
  6
ByLayer
 62
  256
370
   -1
100
AcDbCircle
 10
212.132
 20
212.132
 40
20
  0
LINE
  5
12A
100
AcDbEntity
  8
PolarPattern002
  6
ByLayer
 62
  256
370
   -1
100
AcDbLine
 10
-226.274
 20
-197.99
 11
-226.274
 21
-197.99
  0
LINE
  5
12B
100
AcDbEntity
  8
PolarPattern002
  6
ByLayer
 62
  256
370
   -1
100
AcDbLine
 10
-226.274
 20
-197.99
 11
-226.274
 21
-197.99
  0
CIRCLE
  5
12C
100
AcDbEntity
  8
PolarPattern002
  6
ByLayer
 62
  256
370
   -1
100
AcDbCircle
 10
-212.132
 20
-212.132
 40
20
  0
CIRCLE
  5
12D
100
AcDbEntity
  8
PolarPattern002
  6
ByLayer
 62
  256
370
   -1
100
AcDbCircle
 10
-212.132
 20
-212.132
 40
20
  0
LINE
  5
12E
100
AcDbEntity
  8
PolarPattern002
  6
ByLayer
 62
  256
370
   -1
100
AcDbLine
 10
-133.283
 20
-269.51
 11
-133.283
 21
-269.51
  0
LINE
  5
12F
100
AcDbEntity
  8
PolarPattern002
  6
ByLayer
 62
  256
370
   -1
100
AcDbLine
 10
-133.283
 20
-269.51
 11
-133.283
 21
-269.51
  0
CIRCLE
  5
130
100
AcDbEntity
  8
PolarPattern002
  6
ByLayer
 62
  256
370
   -1
100
AcDbCircle
 10
-114.805
 20
-277.164
 40
20
  0
CIRCLE
  5
131
100
AcDbEntity
  8
PolarPattern002
  6
ByLayer
 62
  256
370
   -1
100
AcDbCircle
 10
-114.805
 20
-277.164
 40
20
  0
LINE
  5
132
100
AcDbEntity
  8
PolarPattern002
  6
ByLayer
 62
  256
370
   -1
100
AcDbLine
 10
-284.818
 20
-96.3274
 11
-284.818
 21
-96.3274
  0
LINE
  5
133
100
AcDbEntity
  8
PolarPattern002
  6
ByLayer
 62
  256
370
   -1
100
AcDbLine
 10
-284.818
 20
-96.3274
 11
-284.818
 21
-96.3274
  0
CIRCLE
  5
134
100
AcDbEntity
  8
PolarPattern002
  6
ByLayer
 62
  256
370
   -1
100
AcDbCircle
 10
-277.164
 20
-114.805
 40
20
  0
CIRCLE
  5
135
100
AcDbEntity
  8
PolarPattern002
  6
ByLayer
 62
  256
370
   -1
100
AcDbCircle
 10
-277.164
 20
-114.805
 40
20
  0
ARC
  5
136
100
AcDbEntity
  8
PolarPattern002
  6
ByLayer
 62
  256
370
   -1
100
AcDbCircle
 10
-91.9239
 20
-91.9239
 40
15
100
AcDbArc
 50
-24.8945
 51
114.894
  0
LINE
  5
137
100
AcDbEntity
  8
PolarPattern002
  6
ByLayer
 62
  256
370
   -1
100
AcDbLine
 10
-98.2381
 20
-78.3176
 11
-98.2381
 21
-78.3176
  0
ARC
  5
138
100
AcDbEntity
  8
PolarPattern002
  6
ByLayer
 62
  256
370
   -1
100
AcDbCircle
 10
-91.9239
 20
-91.9239
 40
15
100
AcDbArc
 50
-24.8945
 51
114.894
  0
LINE
  5
139
100
AcDbEntity
  8
PolarPattern002
  6
ByLayer
 62
  256
370
   -1
100
AcDbLine
 10
-78.3176
 20
-98.2381
 11
-78.3176
 21
-98.2381
  0
LINE
  5
13A
100
AcDbEntity
  8
PolarPattern002
  6
ByLayer
 62
  256
370
   -1
100
AcDbLine
 10
-78.3176
 20
-98.2381
 11
-109.941
 21
-166.383
  0
LINE
  5
13B
100
AcDbEntity
  8
PolarPattern002
  6
ByLayer
 62
  256
370
   -1
100
AcDbLine
 10
-109.941
 20
-166.383
 11
-109.941
 21
-166.383
  0
LINE
  5
13C
100
AcDbEntity
  8
PolarPattern002
  6
ByLayer
 62
  256
370
   -1
100
AcDbLine
 10
-78.3176
 20
-98.2381
 11
-109.941
 21
-166.383
  0
LINE
  5
13D
100
AcDbEntity
  8
PolarPattern002
  6
ByLayer
 62
  256
370
   -1
100
AcDbLine
 10
-78.3176
 20
-98.2381
 11
-78.3176
 21
-98.2381
  0
LINE
  5
13E
100
AcDbEntity
  8
PolarPattern002
  6
ByLayer
 62
  256
370
   -1
100
AcDbLine
 10
-98.2381
 20
-78.3176
 11
-166.383
 21
-109.941
  0
LINE
  5
13F
100
AcDbEntity
  8
PolarPattern002
  6
ByLayer
 62
  256
370
   -1
100
AcDbLine
 10
-166.383
 20
-109.941
 11
-166.383
 21
-109.941
  0
LINE
  5
140
100
AcDbEntity
  8
PolarPattern002
  6
ByLayer
 62
  256
370
   -1
100
AcDbLine
 10
-98.2381
 20
-78.3176
 11
-166.383
 21
-109.941
  0
LINE
  5
141
100
AcDbEntity
  8
PolarPattern002
  6
ByLayer
 62
  256
370
   -1
100
AcDbLine
 10
-98.2381
 20
-78.3176
 11
-98.2381
 21
-78.3176
  0
ARC
  5
142
100
AcDbEntity
  8
PolarPattern002
  6
ByLayer
 62
  256
370
   -1
100
AcDbCircle
 10
-148.492
 20
-148.492
 40
42.5
100
AcDbArc
 50
114.894
 51
-24.8945
  0
LINE
  5
143
100
AcDbEntity
  8
PolarPattern002
  6
ByLayer
 62
  256
370
   -1
100
AcDbLine
 10
-109.941
 20
-166.383
 11
-109.941
 21
-166.383
  0
ARC
  5
144
100
AcDbEntity
  8
PolarPattern002
  6
ByLayer
 62
  256
370
   -1
100
AcDbCircle
 10
-148.492
 20
-148.492
 40
42.5
100
AcDbArc
 50
114.894
 51
-24.8945
  0
LINE
  5
145
100
AcDbEntity
  8
PolarPattern002
  6
ByLayer
 62
  256
370
   -1
100
AcDbLine
 10
-166.383
 20
-109.941
 11
-166.383
 21
-109.941
  0
CIRCLE
  5
146
100
AcDbEntity
  8
PolarPattern002
  6
ByLayer
 62
  256
370
   -1
100
AcDbCircle
 10
-56.5685
 20
-56.5685
 40
5.05
  0
LINE
  5
147
100
AcDbEntity
  8
PolarPattern002
  6
ByLayer
 62
  256
370
   -1
100
AcDbLine
 10
-60.1394
 20
-52.9977
 11
-60.1394
 21
-52.9977
  0
CIRCLE
  5
148
100
AcDbEntity
  8
PolarPattern002
  6
ByLayer
 62
  256
370
   -1
100
AcDbCircle
 10
-56.5685
 20
-56.5685
 40
5.05
  0
LINE
  5
149
100
AcDbEntity
  8
PolarPattern002
  6
ByLayer
 62
  256
370
   -1
100
AcDbLine
 10
-60.1394
 20
-52.9977
 11
-60.1394
 21
-52.9977
  0
LINE
  5
14A
100
AcDbEntity
  8
PolarPattern002
  6
ByLayer
 62
  256
370
   -1
100
AcDbLine
 10
-20
 20
-300
 11
-20
 21
-300
  0
LINE
  5
14B
100
AcDbEntity
  8
PolarPattern002
  6
ByLayer
 62
  256
370
   -1
100
AcDbLine
 10
-20
 20
-300
 11
-20
 21
-300
  0
CIRCLE
  5
14C
100
AcDbEntity
  8
PolarPattern002
  6
ByLayer
 62
  256
370
   -1
100
AcDbCircle
 10
0
 20
-300
 40
20
  0
CIRCLE
  5
14D
100
AcDbEntity
  8
PolarPattern002
  6
ByLayer
 62
  256
370
   -1
100
AcDbCircle
 10
0
 20
-300
 40
20
  0
LINE
  5
14E
100
AcDbEntity
  8
PolarPattern002
  6
ByLayer
 62
  256
370
   -1
100
AcDbLine
 10
96.3274
 20
-284.818
 11
96.3274
 21
-284.818
  0
LINE
  5
14F
100
AcDbEntity
  8
PolarPattern002
  6
ByLayer
 62
  256
370
   -1
100
AcDbLine
 10
96.3274
 20
-284.818
 11
96.3274
 21
-284.818
  0
CIRCLE
  5
150
100
AcDbEntity
  8
PolarPattern002
  6
ByLayer
 62
  256
370
   -1
100
AcDbCircle
 10
114.805
 20
-277.164
 40
20
  0
CIRCLE
  5
151
100
AcDbEntity
  8
PolarPattern002
  6
ByLayer
 62
  256
370
   -1
100
AcDbCircle
 10
114.805
 20
-277.164
 40
20
  0
ARC
  5
152
100
AcDbEntity
  8
PolarPattern002
  6
ByLayer
 62
  256
370
   -1
100
AcDbCircle
 10
0
 20
-130
 40
15
100
AcDbArc
 50
20.1055
 51
159.894
  0
LINE
  5
153
100
AcDbEntity
  8
PolarPattern002
  6
ByLayer
 62
  256
370
   -1
100
AcDbLine
 10
-14.0859
 20
-124.844
 11
-14.0859
 21
-124.844
  0
ARC
  5
154
100
AcDbEntity
  8
PolarPattern002
  6
ByLayer
 62
  256
370
   -1
100
AcDbCircle
 10
-1.592e-14
 20
-130
 40
15
100
AcDbArc
 50
20.1055
 51
159.894
  0
LINE
  5
155
100
AcDbEntity
  8
PolarPattern002
  6
ByLayer
 62
  256
370
   -1
100
AcDbLine
 10
14.0859
 20
-124.844
 11
14.0859
 21
-124.844
  0
LINE
  5
156
100
AcDbEntity
  8
PolarPattern002
  6
ByLayer
 62
  256
370
   -1
100
AcDbLine
 10
14.0859
 20
-124.844
 11
39.9101
 21
-195.391
  0
LINE
  5
157
100
AcDbEntity
  8
PolarPattern002
  6
ByLayer
 62
  256
370
   -1
100
AcDbLine
 10
39.9101
 20
-195.391
 11
39.9101
 21
-195.391
  0
LINE
  5
158
100
AcDbEntity
  8
PolarPattern002
  6
ByLayer
 62
  256
370
   -1
100
AcDbLine
 10
14.0859
 20
-124.844
 11
39.9101
 21
-195.391
  0
LINE
  5
159
100
AcDbEntity
  8
PolarPattern002
  6
ByLayer
 62
  256
370
   -1
100
AcDbLine
 10
14.0859
 20
-124.844
 11
14.0859
 21
-124.844
  0
LINE
  5
15A
100
AcDbEntity
  8
PolarPattern002
  6
ByLayer
 62
  256
370
   -1
100
AcDbLine
 10
-14.0859
 20
-124.844
 11
-39.9101
 21
-195.391
  0
LINE
  5
15B
100
AcDbEntity
  8
PolarPattern002
  6
ByLayer
 62
  256
370
   -1
100
AcDbLine
 10
-39.9101
 20
-195.391
 11
-39.9101
 21
-195.391
  0
LINE
  5
15C
100
AcDbEntity
  8
PolarPattern002
  6
ByLayer
 62
  256
370
   -1
100
AcDbLine
 10
-14.0859
 20
-124.844
 11
-39.9101
 21
-195.391
  0
LINE
  5
15D
100
AcDbEntity
  8
PolarPattern002
  6
ByLayer
 62
  256
370
   -1
100
AcDbLine
 10
-14.0859
 20
-124.844
 11
-14.0859
 21
-124.844
  0
ARC
  5
15E
100
AcDbEntity
  8
PolarPattern002
  6
ByLayer
 62
  256
370
   -1
100
AcDbCircle
 10
0
 20
-210
 40
42.5
100
AcDbArc
 50
159.894
 51
20.1055
  0
LINE
  5
15F
100
AcDbEntity
  8
PolarPattern002
  6
ByLayer
 62
  256
370
   -1
100
AcDbLine
 10
39.9101
 20
-195.391
 11
39.9101
 21
-195.391
  0
ARC
  5
160
100
AcDbEntity
  8
PolarPattern002
  6
ByLayer
 62
  256
370
   -1
100
AcDbCircle
 10
-2.572e-14
 20
-210
 40
42.5
100
AcDbArc
 50
159.894
 51
20.1055
  0
LINE
  5
161
100
AcDbEntity
  8
PolarPattern002
  6
ByLayer
 62
  256
370
   -1
100
AcDbLine
 10
-39.9101
 20
-195.391
 11
-39.9101
 21
-195.391
  0
LINE
  5
162
100
AcDbEntity
  8
PolarPattern002
  6
ByLayer
 62
  256
370
   -1
100
AcDbLine
 10
197.99
 20
-226.274
 11
197.99
 21
-226.274
  0
LINE
  5
163
100
AcDbEntity
  8
PolarPattern002
  6
ByLayer
 62
  256
370
   -1
100
AcDbLine
 10
197.99
 20
-226.274
 11
197.99
 21
-226.274
  0
CIRCLE
  5
164
100
AcDbEntity
  8
PolarPattern002
  6
ByLayer
 62
  256
370
   -1
100
AcDbCircle
 10
212.132
 20
-212.132
 40
20
  0
CIRCLE
  5
165
100
AcDbEntity
  8
PolarPattern002
  6
ByLayer
 62
  256
370
   -1
100
AcDbCircle
 10
212.132
 20
-212.132
 40
20
  0
ARC
  5
166
100
AcDbEntity
  8
PolarPattern002
  6
ByLayer
 62
  256
370
   -1
100
AcDbCircle
 10
91.9239
 20
-91.9239
 40
15
100
AcDbArc
 50
65.10550000000001
 51
-155.106
  0
LINE
  5
167
100
AcDbEntity
  8
PolarPattern002
  6
ByLayer
 62
  256
370
   -1
100
AcDbLine
 10
78.3176
 20
-98.2381
 11
78.3176
 21
-98.2381
  0
ARC
  5
168
100
AcDbEntity
  8
PolarPattern002
  6
ByLayer
 62
  256
370
   -1
100
AcDbCircle
 10
91.9239
 20
-91.9239
 40
15
100
AcDbArc
 50
65.10550000000001
 51
-155.106
  0
LINE
  5
169
100
AcDbEntity
  8
PolarPattern002
  6
ByLayer
 62
  256
370
   -1
100
AcDbLine
 10
98.2381
 20
-78.3176
 11
98.2381
 21
-78.3176
  0
LINE
  5
16A
100
AcDbEntity
  8
PolarPattern002
  6
ByLayer
 62
  256
370
   -1
100
AcDbLine
 10
98.2381
 20
-78.3176
 11
166.383
 21
-109.941
  0
LINE
  5
16B
100
AcDbEntity
  8
PolarPattern002
  6
ByLayer
 62
  256
370
   -1
100
AcDbLine
 10
166.383
 20
-109.941
 11
166.383
 21
-109.941
  0
LINE
  5
16C
100
AcDbEntity
  8
PolarPattern002
  6
ByLayer
 62
  256
370
   -1
100
AcDbLine
 10
98.2381
 20
-78.3176
 11
166.383
 21
-109.941
  0
LINE
  5
16D
100
AcDbEntity
  8
PolarPattern002
  6
ByLayer
 62
  256
370
   -1
100
AcDbLine
 10
98.2381
 20
-78.3176
 11
98.2381
 21
-78.3176
  0
LINE
  5
16E
100
AcDbEntity
  8
PolarPattern002
  6
ByLayer
 62
  256
370
   -1
100
AcDbLine
 10
78.3176
 20
-98.2381
 11
109.941
 21
-166.383
  0
LINE
  5
16F
100
AcDbEntity
  8
PolarPattern002
  6
ByLayer
 62
  256
370
   -1
100
AcDbLine
 10
109.941
 20
-166.383
 11
109.941
 21
-166.383
  0
LINE
  5
170
100
AcDbEntity
  8
PolarPattern002
  6
ByLayer
 62
  256
370
   -1
100
AcDbLine
 10
78.3176
 20
-98.2381
 11
109.941
 21
-166.383
  0
LINE
  5
171
100
AcDbEntity
  8
PolarPattern002
  6
ByLayer
 62
  256
370
   -1
100
AcDbLine
 10
78.3176
 20
-98.2381
 11
78.3176
 21
-98.2381
  0
ARC
  5
172
100
AcDbEntity
  8
PolarPattern002
  6
ByLayer
 62
  256
370
   -1
100
AcDbCircle
 10
148.492
 20
-148.492
 40
42.5
100
AcDbArc
 50
-155.106
 51
65.10550000000001
  0
LINE
  5
173
100
AcDbEntity
  8
PolarPattern002
  6
ByLayer
 62
  256
370
   -1
100
AcDbLine
 10
166.383
 20
-109.941
 11
166.383
 21
-109.941
  0
ARC
  5
174
100
AcDbEntity
  8
PolarPattern002
  6
ByLayer
 62
  256
370
   -1
100
AcDbCircle
 10
148.492
 20
-148.492
 40
42.5
100
AcDbArc
 50
-155.106
 51
65.10550000000001
  0
LINE
  5
175
100
AcDbEntity
  8
PolarPattern002
  6
ByLayer
 62
  256
370
   -1
100
AcDbLine
 10
109.941
 20
-166.383
 11
109.941
 21
-166.383
  0
CIRCLE
  5
176
100
AcDbEntity
  8
PolarPattern002
  6
ByLayer
 62
  256
370
   -1
100
AcDbCircle
 10
0
 20
-80
 40
5.05
  0
LINE
  5
177
100
AcDbEntity
  8
PolarPattern002
  6
ByLayer
 62
  256
370
   -1
100
AcDbLine
 10
-5.05
 20
-80
 11
-5.05
 21
-80
  0
CIRCLE
  5
178
100
AcDbEntity
  8
PolarPattern002
  6
ByLayer
 62
  256
370
   -1
100
AcDbCircle
 10
-9.8e-15
 20
-80
 40
5.05
  0
LINE
  5
179
100
AcDbEntity
  8
PolarPattern002
  6
ByLayer
 62
  256
370
   -1
100
AcDbLine
 10
-5.05
 20
-80
 11
-5.05
 21
-80
  0
CIRCLE
  5
17A
100
AcDbEntity
  8
PolarPattern002
  6
ByLayer
 62
  256
370
   -1
100
AcDbCircle
 10
56.5685
 20
-56.5685
 40
5.05
  0
LINE
  5
17B
100
AcDbEntity
  8
PolarPattern002
  6
ByLayer
 62
  256
370
   -1
100
AcDbLine
 10
52.9977
 20
-60.1394
 11
52.9977
 21
-60.1394
  0
CIRCLE
  5
17C
100
AcDbEntity
  8
PolarPattern002
  6
ByLayer
 62
  256
370
   -1
100
AcDbCircle
 10
56.5685
 20
-56.5685
 40
5.05
  0
LINE
  5
17D
100
AcDbEntity
  8
PolarPattern002
  6
ByLayer
 62
  256
370
   -1
100
AcDbLine
 10
52.9977
 20
-60.1394
 11
52.9977
 21
-60.1394
  0
CIRCLE
  5
17E
100
AcDbEntity
  8
PolarPattern002
  6
ByLayer
 62
  256
370
   -1
100
AcDbCircle
 10
80
 20
0
 40
5.05
  0
LINE
  5
17F
100
AcDbEntity
  8
PolarPattern002
  6
ByLayer
 62
  256
370
   -1
100
AcDbLine
 10
80
 20
-5.05
 11
80
 21
-5.05
  0
CIRCLE
  5
180
100
AcDbEntity
  8
PolarPattern002
  6
ByLayer
 62
  256
370
   -1
100
AcDbCircle
 10
80
 20
-1.776e-14
 40
5.05
  0
LINE
  5
181
100
AcDbEntity
  8
PolarPattern002
  6
ByLayer
 62
  256
370
   -1
100
AcDbLine
 10
80
 20
-5.05
 11
80
 21
-5.05
  0
LINE
  5
182
100
AcDbEntity
  8
PolarPattern002
  6
ByLayer
 62
  256
370
   -1
100
AcDbLine
 10
269.51
 20
-133.283
 11
269.51
 21
-133.283
  0
LINE
  5
183
100
AcDbEntity
  8
PolarPattern002
  6
ByLayer
 62
  256
370
   -1
100
AcDbLine
 10
269.51
 20
-133.283
 11
269.51
 21
-133.283
  0
CIRCLE
  5
184
100
AcDbEntity
  8
PolarPattern002
  6
ByLayer
 62
  256
370
   -1
100
AcDbCircle
 10
277.164
 20
-114.805
 40
20
  0
CIRCLE
  5
185
100
AcDbEntity
  8
PolarPattern002
  6
ByLayer
 62
  256
370
   -1
100
AcDbCircle
 10
277.164
 20
-114.805
 40
20
  0
ARC
  5
186
100
AcDbEntity
  8
PolarPattern002
  6
ByLayer
 62
  256
370
   -1
100
AcDbCircle
 10
130
 20
0
 40
15
100
AcDbArc
 50
110.106
 51
-110.106
  0
LINE
  5
187
100
AcDbEntity
  8
PolarPattern002
  6
ByLayer
 62
  256
370
   -1
100
AcDbLine
 10
124.844
 20
-14.0859
 11
124.844
 21
-14.0859
  0
ARC
  5
188
100
AcDbEntity
  8
PolarPattern002
  6
ByLayer
 62
  256
370
   -1
100
AcDbCircle
 10
130
 20
-2.887e-14
 40
15
100
AcDbArc
 50
110.106
 51
-110.106
  0
LINE
  5
189
100
AcDbEntity
  8
PolarPattern002
  6
ByLayer
 62
  256
370
   -1
100
AcDbLine
 10
124.844
 20
14.0859
 11
124.844
 21
14.0859
  0
LINE
  5
18A
100
AcDbEntity
  8
PolarPattern002
  6
ByLayer
 62
  256
370
   -1
100
AcDbLine
 10
124.844
 20
14.0859
 11
195.391
 21
39.9101
  0
LINE
  5
18B
100
AcDbEntity
  8
PolarPattern002
  6
ByLayer
 62
  256
370
   -1
100
AcDbLine
 10
195.391
 20
39.9101
 11
195.391
 21
39.9101
  0
LINE
  5
18C
100
AcDbEntity
  8
PolarPattern002
  6
ByLayer
 62
  256
370
   -1
100
AcDbLine
 10
124.844
 20
14.0859
 11
195.391
 21
39.9101
  0
LINE
  5
18D
100
AcDbEntity
  8
PolarPattern002
  6
ByLayer
 62
  256
370
   -1
100
AcDbLine
 10
124.844
 20
14.0859
 11
124.844
 21
14.0859
  0
LINE
  5
18E
100
AcDbEntity
  8
PolarPattern002
  6
ByLayer
 62
  256
370
   -1
100
AcDbLine
 10
124.844
 20
-14.0859
 11
195.391
 21
-39.9101
  0
LINE
  5
18F
100
AcDbEntity
  8
PolarPattern002
  6
ByLayer
 62
  256
370
   -1
100
AcDbLine
 10
195.391
 20
-39.9101
 11
195.391
 21
-39.9101
  0
LINE
  5
190
100
AcDbEntity
  8
PolarPattern002
  6
ByLayer
 62
  256
370
   -1
100
AcDbLine
 10
124.844
 20
-14.0859
 11
195.391
 21
-39.9101
  0
LINE
  5
191
100
AcDbEntity
  8
PolarPattern002
  6
ByLayer
 62
  256
370
   -1
100
AcDbLine
 10
124.844
 20
-14.0859
 11
124.844
 21
-14.0859
  0
ARC
  5
192
100
AcDbEntity
  8
PolarPattern002
  6
ByLayer
 62
  256
370
   -1
100
AcDbCircle
 10
210
 20
0
 40
42.5
100
AcDbArc
 50
-110.106
 51
110.106
  0
LINE
  5
193
100
AcDbEntity
  8
PolarPattern002
  6
ByLayer
 62
  256
370
   -1
100
AcDbLine
 10
195.391
 20
39.9101
 11
195.391
 21
39.9101
  0
ARC
  5
194
100
AcDbEntity
  8
PolarPattern002
  6
ByLayer
 62
  256
370
   -1
100
AcDbCircle
 10
210
 20
-4.663e-14
 40
42.5
100
AcDbArc
 50
-110.106
 51
110.106
  0
LINE
  5
195
100
AcDbEntity
  8
PolarPattern002
  6
ByLayer
 62
  256
370
   -1
100
AcDbLine
 10
195.391
 20
-39.9101
 11
195.391
 21
-39.9101
  0
LINE
  5
196
100
AcDbEntity
  8
PolarPattern002
  6
ByLayer
 62
  256
370
   -1
100
AcDbLine
 10
300
 20
-20
 11
300
 21
-20
  0
LINE
  5
197
100
AcDbEntity
  8
PolarPattern002
  6
ByLayer
 62
  256
370
   -1
100
AcDbLine
 10
300
 20
-20
 11
300
 21
-20
  0
CIRCLE
  5
198
100
AcDbEntity
  8
PolarPattern002
  6
ByLayer
 62
  256
370
   -1
100
AcDbCircle
 10
300
 20
0
 40
20
  0
CIRCLE
  5
199
100
AcDbEntity
  8
PolarPattern002
  6
ByLayer
 62
  256
370
   -1
100
AcDbCircle
 10
300
 20
0
 40
20
  0
LINE
  5
19A
100
AcDbEntity
  8
PolarPattern002
  6
ByLayer
 62
  256
370
   -1
100
AcDbLine
 10
-300
 20
20
 11
-300
 21
20
  0
LINE
  5
19B
100
AcDbEntity
  8
PolarPattern002
  6
ByLayer
 62
  256
370
   -1
100
AcDbLine
 10
-300
 20
20
 11
-300
 21
20
  0
CIRCLE
  5
19C
100
AcDbEntity
  8
PolarPattern002
  6
ByLayer
 62
  256
370
   -1
100
AcDbCircle
 10
-300
 20
0
 40
20
  0
CIRCLE
  5
19D
100
AcDbEntity
  8
PolarPattern002
  6
ByLayer
 62
  256
370
   -1
100
AcDbCircle
 10
-300
 20
0
 40
20
  0
ARC
  5
19E
100
AcDbEntity
  8
PolarPattern002
  6
ByLayer
 62
  256
370
   -1
100
AcDbCircle
 10
-130
 20
0
 40
15
100
AcDbArc
 50
-69.89449999999999
 51
69.89449999999999
  0
LINE
  5
19F
100
AcDbEntity
  8
PolarPattern002
  6
ByLayer
 62
  256
370
   -1
100
AcDbLine
 10
-124.844
 20
14.0859
 11
-124.844
 21
14.0859
  0
ARC
  5
1A0
100
AcDbEntity
  8
PolarPattern002
  6
ByLayer
 62
  256
370
   -1
100
AcDbCircle
 10
-130
 20
1.443e-14
 40
15
100
AcDbArc
 50
-69.89449999999999
 51
69.89449999999999
  0
LINE
  5
1A1
100
AcDbEntity
  8
PolarPattern002
  6
ByLayer
 62
  256
370
   -1
100
AcDbLine
 10
-124.844
 20
-14.0859
 11
-124.844
 21
-14.0859
  0
LINE
  5
1A2
100
AcDbEntity
  8
PolarPattern002
  6
ByLayer
 62
  256
370
   -1
100
AcDbLine
 10
-124.844
 20
-14.0859
 11
-195.391
 21
-39.9101
  0
LINE
  5
1A3
100
AcDbEntity
  8
PolarPattern002
  6
ByLayer
 62
  256
370
   -1
100
AcDbLine
 10
-195.391
 20
-39.9101
 11
-195.391
 21
-39.9101
  0
LINE
  5
1A4
100
AcDbEntity
  8
PolarPattern002
  6
ByLayer
 62
  256
370
   -1
100
AcDbLine
 10
-124.844
 20
-14.0859
 11
-195.391
 21
-39.9101
  0
LINE
  5
1A5
100
AcDbEntity
  8
PolarPattern002
  6
ByLayer
 62
  256
370
   -1
100
AcDbLine
 10
-124.844
 20
-14.0859
 11
-124.844
 21
-14.0859
  0
LINE
  5
1A6
100
AcDbEntity
  8
PolarPattern002
  6
ByLayer
 62
  256
370
   -1
100
AcDbLine
 10
-124.844
 20
14.0859
 11
-195.391
 21
39.9101
  0
LINE
  5
1A7
100
AcDbEntity
  8
PolarPattern002
  6
ByLayer
 62
  256
370
   -1
100
AcDbLine
 10
-195.391
 20
39.9101
 11
-195.391
 21
39.9101
  0
LINE
  5
1A8
100
AcDbEntity
  8
PolarPattern002
  6
ByLayer
 62
  256
370
   -1
100
AcDbLine
 10
-124.844
 20
14.0859
 11
-195.391
 21
39.9101
  0
LINE
  5
1A9
100
AcDbEntity
  8
PolarPattern002
  6
ByLayer
 62
  256
370
   -1
100
AcDbLine
 10
-124.844
 20
14.0859
 11
-124.844
 21
14.0859
  0
ARC
  5
1AA
100
AcDbEntity
  8
PolarPattern002
  6
ByLayer
 62
  256
370
   -1
100
AcDbCircle
 10
-210
 20
0
 40
42.5
100
AcDbArc
 50
69.89449999999999
 51
-69.89449999999999
  0
LINE
  5
1AB
100
AcDbEntity
  8
PolarPattern002
  6
ByLayer
 62
  256
370
   -1
100
AcDbLine
 10
-195.391
 20
-39.9101
 11
-195.391
 21
-39.9101
  0
ARC
  5
1AC
100
AcDbEntity
  8
PolarPattern002
  6
ByLayer
 62
  256
370
   -1
100
AcDbCircle
 10
-210
 20
2.331e-14
 40
42.5
100
AcDbArc
 50
69.89449999999999
 51
-69.89449999999999
  0
LINE
  5
1AD
100
AcDbEntity
  8
PolarPattern002
  6
ByLayer
 62
  256
370
   -1
100
AcDbLine
 10
-195.391
 20
39.9101
 11
-195.391
 21
39.9101
  0
LINE
  5
1AE
100
AcDbEntity
  8
PolarPattern002
  6
ByLayer
 62
  256
370
   -1
100
AcDbLine
 10
-269.51
 20
133.283
 11
-269.51
 21
133.283
  0
LINE
  5
1AF
100
AcDbEntity
  8
PolarPattern002
  6
ByLayer
 62
  256
370
   -1
100
AcDbLine
 10
-269.51
 20
133.283
 11
-269.51
 21
133.283
  0
CIRCLE
  5
1B0
100
AcDbEntity
  8
PolarPattern002
  6
ByLayer
 62
  256
370
   -1
100
AcDbCircle
 10
-277.164
 20
114.805
 40
20
  0
CIRCLE
  5
1B1
100
AcDbEntity
  8
PolarPattern002
  6
ByLayer
 62
  256
370
   -1
100
AcDbCircle
 10
-277.164
 20
114.805
 40
20
  0
CIRCLE
  5
1B2
100
AcDbEntity
  8
PolarPattern002
  6
ByLayer
 62
  256
370
   -1
100
AcDbCircle
 10
-80
 20
0
 40
5.05
  0
LINE
  5
1B3
100
AcDbEntity
  8
PolarPattern002
  6
ByLayer
 62
  256
370
   -1
100
AcDbLine
 10
-80
 20
5.05
 11
-80
 21
5.05
  0
CIRCLE
  5
1B4
100
AcDbEntity
  8
PolarPattern002
  6
ByLayer
 62
  256
370
   -1
100
AcDbCircle
 10
-80
 20
8.880000000000001e-15
 40
5.05
  0
LINE
  5
1B5
100
AcDbEntity
  8
PolarPattern002
  6
ByLayer
 62
  256
370
   -1
100
AcDbLine
 10
-80
 20
5.05
 11
-80
 21
5.05
  0
CIRCLE
  5
1B6
100
AcDbEntity
  8
PolarPattern002
  6
ByLayer
 62
  256
370
   -1
100
AcDbCircle
 10
-56.5685
 20
56.5685
 40
5.05
  0
LINE
  5
1B7
100
AcDbEntity
  8
PolarPattern002
  6
ByLayer
 62
  256
370
   -1
100
AcDbLine
 10
-52.9977
 20
60.1394
 11
-52.9977
 21
60.1394
  0
CIRCLE
  5
1B8
100
AcDbEntity
  8
PolarPattern002
  6
ByLayer
 62
  256
370
   -1
100
AcDbCircle
 10
-56.5685
 20
56.5685
 40
5.05
  0
LINE
  5
1B9
100
AcDbEntity
  8
PolarPattern002
  6
ByLayer
 62
  256
370
   -1
100
AcDbLine
 10
-52.9977
 20
60.1394
 11
-52.9977
 21
60.1394
  0
ARC
  5
1BA
100
AcDbEntity
  8
PolarPattern002
  6
ByLayer
 62
  256
370
   -1
100
AcDbCircle
 10
-91.9239
 20
91.9239
 40
15
100
AcDbArc
 50
-114.894
 51
24.8945
  0
LINE
  5
1BB
100
AcDbEntity
  8
PolarPattern002
  6
ByLayer
 62
  256
370
   -1
100
AcDbLine
 10
-78.3176
 20
98.2381
 11
-78.3176
 21
98.2381
  0
ARC
  5
1BC
100
AcDbEntity
  8
PolarPattern002
  6
ByLayer
 62
  256
370
   -1
100
AcDbCircle
 10
-91.9239
 20
91.9239
 40
15
100
AcDbArc
 50
-114.894
 51
24.8945
  0
LINE
  5
1BD
100
AcDbEntity
  8
PolarPattern002
  6
ByLayer
 62
  256
370
   -1
100
AcDbLine
 10
-98.2381
 20
78.3176
 11
-98.2381
 21
78.3176
  0
LINE
  5
1BE
100
AcDbEntity
  8
PolarPattern002
  6
ByLayer
 62
  256
370
   -1
100
AcDbLine
 10
-98.2381
 20
78.3176
 11
-166.383
 21
109.941
  0
LINE
  5
1BF
100
AcDbEntity
  8
PolarPattern002
  6
ByLayer
 62
  256
370
   -1
100
AcDbLine
 10
-166.383
 20
109.941
 11
-166.383
 21
109.941
  0
LINE
  5
1C0
100
AcDbEntity
  8
PolarPattern002
  6
ByLayer
 62
  256
370
   -1
100
AcDbLine
 10
-98.2381
 20
78.3176
 11
-166.383
 21
109.941
  0
LINE
  5
1C1
100
AcDbEntity
  8
PolarPattern002
  6
ByLayer
 62
  256
370
   -1
100
AcDbLine
 10
-98.2381
 20
78.3176
 11
-98.2381
 21
78.3176
  0
LINE
  5
1C2
100
AcDbEntity
  8
PolarPattern002
  6
ByLayer
 62
  256
370
   -1
100
AcDbLine
 10
-78.3176
 20
98.2381
 11
-109.941
 21
166.383
  0
LINE
  5
1C3
100
AcDbEntity
  8
PolarPattern002
  6
ByLayer
 62
  256
370
   -1
100
AcDbLine
 10
-109.941
 20
166.383
 11
-109.941
 21
166.383
  0
LINE
  5
1C4
100
AcDbEntity
  8
PolarPattern002
  6
ByLayer
 62
  256
370
   -1
100
AcDbLine
 10
-78.3176
 20
98.2381
 11
-109.941
 21
166.383
  0
LINE
  5
1C5
100
AcDbEntity
  8
PolarPattern002
  6
ByLayer
 62
  256
370
   -1
100
AcDbLine
 10
-78.3176
 20
98.2381
 11
-78.3176
 21
98.2381
  0
ARC
  5
1C6
100
AcDbEntity
  8
PolarPattern002
  6
ByLayer
 62
  256
370
   -1
100
AcDbCircle
 10
-148.492
 20
148.492
 40
42.5
100
AcDbArc
 50
24.8945
 51
-114.894
  0
LINE
  5
1C7
100
AcDbEntity
  8
PolarPattern002
  6
ByLayer
 62
  256
370
   -1
100
AcDbLine
 10
-166.383
 20
109.941
 11
-166.383
 21
109.941
  0
ARC
  5
1C8
100
AcDbEntity
  8
PolarPattern002
  6
ByLayer
 62
  256
370
   -1
100
AcDbCircle
 10
-148.492
 20
148.492
 40
42.5
100
AcDbArc
 50
24.8945
 51
-114.894
  0
LINE
  5
1C9
100
AcDbEntity
  8
PolarPattern002
  6
ByLayer
 62
  256
370
   -1
100
AcDbLine
 10
-109.941
 20
166.383
 11
-109.941
 21
166.383
  0
LINE
  5
1CA
100
AcDbEntity
  8
PolarPattern002
  6
ByLayer
 62
  256
370
   -1
100
AcDbLine
 10
-197.99
 20
226.274
 11
-197.99
 21
226.274
  0
LINE
  5
1CB
100
AcDbEntity
  8
PolarPattern002
  6
ByLayer
 62
  256
370
   -1
100
AcDbLine
 10
-197.99
 20
226.274
 11
-197.99
 21
226.274
  0
CIRCLE
  5
1CC
100
AcDbEntity
  8
PolarPattern002
  6
ByLayer
 62
  256
370
   -1
100
AcDbCircle
 10
-212.132
 20
212.132
 40
20
  0
CIRCLE
  5
1CD
100
AcDbEntity
  8
PolarPattern002
  6
ByLayer
 62
  256
370
   -1
100
AcDbCircle
 10
-212.132
 20
212.132
 40
20
  0
LINE
  5
1CE
100
AcDbEntity
  8
PolarPattern002
  6
ByLayer
 62
  256
370
   -1
100
AcDbLine
 10
-96.3274
 20
284.818
 11
-96.3274
 21
284.818
  0
LINE
  5
1CF
100
AcDbEntity
  8
PolarPattern002
  6
ByLayer
 62
  256
370
   -1
100
AcDbLine
 10
-96.3274
 20
284.818
 11
-96.3274
 21
284.818
  0
CIRCLE
  5
1D0
100
AcDbEntity
  8
PolarPattern002
  6
ByLayer
 62
  256
370
   -1
100
AcDbCircle
 10
-114.805
 20
277.164
 40
20
  0
CIRCLE
  5
1D1
100
AcDbEntity
  8
PolarPattern002
  6
ByLayer
 62
  256
370
   -1
100
AcDbCircle
 10
-114.805
 20
277.164
 40
20
  0
LINE
  5
1D2
100
AcDbEntity
  8
PolarPattern002
  6
ByLayer
 62
  256
370
   -1
100
AcDbLine
 10
14
 20
0
 11
14
 21
0
  0
LINE
  5
1D3
100
AcDbEntity
  8
PolarPattern002
  6
ByLayer
 62
  256
370
   -1
100
AcDbLine
 10
14
 20
0
 11
14
 21
0
  0
CIRCLE
  5
1D4
100
AcDbEntity
  8
PolarPattern002
  6
ByLayer
 62
  256
370
   -1
100
AcDbCircle
 10
0
 20
0
 40
14
  0
CIRCLE
  5
1D5
100
AcDbEntity
  8
PolarPattern002
  6
ByLayer
 62
  256
370
   -1
100
AcDbCircle
 10
0
 20
0
 40
14
  0
CIRCLE
  5
1D6
100
AcDbEntity
  8
PolarPattern002
  6
ByLayer
 62
  256
370
   -1
100
AcDbCircle
 10
56.5685
 20
56.5685
 40
5.05
  0
LINE
  5
1D7
100
AcDbEntity
  8
PolarPattern002
  6
ByLayer
 62
  256
370
   -1
100
AcDbLine
 10
60.1394
 20
52.9977
 11
60.1394
 21
52.9977
  0
CIRCLE
  5
1D8
100
AcDbEntity
  8
PolarPattern002
  6
ByLayer
 62
  256
370
   -1
100
AcDbCircle
 10
56.5685
 20
56.5685
 40
5.05
  0
LINE
  5
1D9
100
AcDbEntity
  8
PolarPattern002
  6
ByLayer
 62
  256
370
   -1
100
AcDbLine
 10
60.1394
 20
52.9977
 11
60.1394
 21
52.9977
  0
CIRCLE
  5
1DA
100
AcDbEntity
  8
PolarPattern002
  6
ByLayer
 62
  256
370
   -1
100
AcDbCircle
 10
0
 20
80
 40
5.05
  0
LINE
  5
1DB
100
AcDbEntity
  8
PolarPattern002
  6
ByLayer
 62
  256
370
   -1
100
AcDbLine
 10
5.05
 20
80
 11
5.05
 21
80
  0
CIRCLE
  5
1DC
100
AcDbEntity
  8
PolarPattern002
  6
ByLayer
 62
  256
370
   -1
100
AcDbCircle
 10
0
 20
80
 40
5.05
  0
LINE
  5
1DD
100
AcDbEntity
  8
PolarPattern002
  6
ByLayer
 62
  256
370
   -1
100
AcDbLine
 10
5.05
 20
80
 11
5.05
 21
80
  0
ARC
  5
1DE
100
AcDbEntity
  8
PolarPattern002
  6
ByLayer
 62
  256
370
   -1
100
AcDbCircle
 10
91.9239
 20
91.9239
 40
15
100
AcDbArc
 50
155.106
 51
-65.10550000000001
  0
LINE
  5
1DF
100
AcDbEntity
  8
PolarPattern002
  6
ByLayer
 62
  256
370
   -1
100
AcDbLine
 10
98.2381
 20
78.3176
 11
98.2381
 21
78.3176
  0
ARC
  5
1E0
100
AcDbEntity
  8
PolarPattern002
  6
ByLayer
 62
  256
370
   -1
100
AcDbCircle
 10
91.9239
 20
91.9239
 40
15
100
AcDbArc
 50
155.106
 51
-65.10550000000001
  0
LINE
  5
1E1
100
AcDbEntity
  8
PolarPattern002
  6
ByLayer
 62
  256
370
   -1
100
AcDbLine
 10
78.3176
 20
98.2381
 11
78.3176
 21
98.2381
  0
LINE
  5
1E2
100
AcDbEntity
  8
PolarPattern002
  6
ByLayer
 62
  256
370
   -1
100
AcDbLine
 10
98.2381
 20
78.3176
 11
166.383
 21
109.941
  0
LINE
  5
1E3
100
AcDbEntity
  8
PolarPattern002
  6
ByLayer
 62
  256
370
   -1
100
AcDbLine
 10
166.383
 20
109.941
 11
166.383
 21
109.941
  0
LINE
  5
1E4
100
AcDbEntity
  8
PolarPattern002
  6
ByLayer
 62
  256
370
   -1
100
AcDbLine
 10
98.2381
 20
78.3176
 11
166.383
 21
109.941
  0
LINE
  5
1E5
100
AcDbEntity
  8
PolarPattern002
  6
ByLayer
 62
  256
370
   -1
100
AcDbLine
 10
98.2381
 20
78.3176
 11
98.2381
 21
78.3176
  0
ARC
  5
1E6
100
AcDbEntity
  8
PolarPattern002
  6
ByLayer
 62
  256
370
   -1
100
AcDbCircle
 10
148.492
 20
148.492
 40
42.5
100
AcDbArc
 50
-65.10550000000001
 51
155.106
  0
LINE
  5
1E7
100
AcDbEntity
  8
PolarPattern002
  6
ByLayer
 62
  256
370
   -1
100
AcDbLine
 10
109.941
 20
166.383
 11
109.941
 21
166.383
  0
ARC
  5
1E8
100
AcDbEntity
  8
PolarPattern002
  6
ByLayer
 62
  256
370
   -1
100
AcDbCircle
 10
148.492
 20
148.492
 40
42.5
100
AcDbArc
 50
-65.10550000000001
 51
155.106
  0
LINE
  5
1E9
100
AcDbEntity
  8
PolarPattern002
  6
ByLayer
 62
  256
370
   -1
100
AcDbLine
 10
166.383
 20
109.941
 11
166.383
 21
109.941
  0
LINE
  5
1EA
100
AcDbEntity
  8
PolarPattern002
  6
ByLayer
 62
  256
370
   -1
100
AcDbLine
 10
78.3176
 20
98.2381
 11
109.941
 21
166.383
  0
LINE
  5
1EB
100
AcDbEntity
  8
PolarPattern002
  6
ByLayer
 62
  256
370
   -1
100
AcDbLine
 10
109.941
 20
166.383
 11
109.941
 21
166.383
  0
LINE
  5
1EC
100
AcDbEntity
  8
PolarPattern002
  6
ByLayer
 62
  256
370
   -1
100
AcDbLine
 10
78.3176
 20
98.2381
 11
109.941
 21
166.383
  0
LINE
  5
1ED
100
AcDbEntity
  8
PolarPattern002
  6
ByLayer
 62
  256
370
   -1
100
AcDbLine
 10
78.3176
 20
98.2381
 11
78.3176
 21
98.2381
  0
LINE
  5
1EE
100
AcDbEntity
  8
PolarPattern002
  6
ByLayer
 62
  256
370
   -1
100
AcDbLine
 10
284.818
 20
96.3274
 11
284.818
 21
96.3274
  0
LINE
  5
1EF
100
AcDbEntity
  8
PolarPattern002
  6
ByLayer
 62
  256
370
   -1
100
AcDbLine
 10
284.818
 20
96.3274
 11
284.818
 21
96.3274
  0
CIRCLE
  5
1F0
100
AcDbEntity
  8
PolarPattern002
  6
ByLayer
 62
  256
370
   -1
100
AcDbCircle
 10
277.164
 20
114.805
 40
20
  0
CIRCLE
  5
1F1
100
AcDbEntity
  8
PolarPattern002
  6
ByLayer
 62
  256
370
   -1
100
AcDbCircle
 10
277.164
 20
114.805
 40
20
  0
ARC
  5
1F2
100
AcDbEntity
  8
PolarPattern002
  6
ByLayer
 62
  256
370
   -1
100
AcDbCircle
 10
0
 20
130
 40
15
100
AcDbArc
 50
-159.894
 51
-20.1055
  0
LINE
  5
1F3
100
AcDbEntity
  8
PolarPattern002
  6
ByLayer
 62
  256
370
   -1
100
AcDbLine
 10
14.0859
 20
124.844
 11
14.0859
 21
124.844
  0
ARC
  5
1F4
100
AcDbEntity
  8
PolarPattern002
  6
ByLayer
 62
  256
370
   -1
100
AcDbCircle
 10
0
 20
130
 40
15
100
AcDbArc
 50
-159.894
 51
-20.1055
  0
LINE
  5
1F5
100
AcDbEntity
  8
PolarPattern002
  6
ByLayer
 62
  256
370
   -1
100
AcDbLine
 10
-14.0859
 20
124.844
 11
-14.0859
 21
124.844
  0
LINE
  5
1F6
100
AcDbEntity
  8
PolarPattern002
  6
ByLayer
 62
  256
370
   -1
100
AcDbLine
 10
-14.0859
 20
124.844
 11
-39.9101
 21
195.391
  0
LINE
  5
1F7
100
AcDbEntity
  8
PolarPattern002
  6
ByLayer
 62
  256
370
   -1
100
AcDbLine
 10
-39.9101
 20
195.391
 11
-39.9101
 21
195.391
  0
LINE
  5
1F8
100
AcDbEntity
  8
PolarPattern002
  6
ByLayer
 62
  256
370
   -1
100
AcDbLine
 10
-14.0859
 20
124.844
 11
-39.9101
 21
195.391
  0
LINE
  5
1F9
100
AcDbEntity
  8
PolarPattern002
  6
ByLayer
 62
  256
370
   -1
100
AcDbLine
 10
-14.0859
 20
124.844
 11
-14.0859
 21
124.844
  0
LINE
  5
1FA
100
AcDbEntity
  8
PolarPattern002
  6
ByLayer
 62
  256
370
   -1
100
AcDbLine
 10
14.0859
 20
124.844
 11
39.9101
 21
195.391
  0
LINE
  5
1FB
100
AcDbEntity
  8
PolarPattern002
  6
ByLayer
 62
  256
370
   -1
100
AcDbLine
 10
39.9101
 20
195.391
 11
39.9101
 21
195.391
  0
LINE
  5
1FC
100
AcDbEntity
  8
PolarPattern002
  6
ByLayer
 62
  256
370
   -1
100
AcDbLine
 10
14.0859
 20
124.844
 11
39.9101
 21
195.391
  0
LINE
  5
1FD
100
AcDbEntity
  8
PolarPattern002
  6
ByLayer
 62
  256
370
   -1
100
AcDbLine
 10
14.0859
 20
124.844
 11
14.0859
 21
124.844
  0
ARC
  5
1FE
100
AcDbEntity
  8
PolarPattern002
  6
ByLayer
 62
  256
370
   -1
100
AcDbCircle
 10
0
 20
210
 40
42.5
100
AcDbArc
 50
-20.1055
 51
-159.894
  0
LINE
  5
1FF
100
AcDbEntity
  8
PolarPattern002
  6
ByLayer
 62
  256
370
   -1
100
AcDbLine
 10
-39.9101
 20
195.391
 11
-39.9101
 21
195.391
  0
ARC
  5
200
100
AcDbEntity
  8
PolarPattern002
  6
ByLayer
 62
  256
370
   -1
100
AcDbCircle
 10
0
 20
210
 40
42.5
100
AcDbArc
 50
-20.1055
 51
-159.894
  0
LINE
  5
201
100
AcDbEntity
  8
PolarPattern002
  6
ByLayer
 62
  256
370
   -1
100
AcDbLine
 10
39.9101
 20
195.391
 11
39.9101
 21
195.391
  0
LINE
  5
202
100
AcDbEntity
  8
PolarPattern002
  6
ByLayer
 62
  256
370
   -1
100
AcDbLine
 10
20
 20
300
 11
20
 21
300
  0
LINE
  5
203
100
AcDbEntity
  8
PolarPattern002
  6
ByLayer
 62
  256
370
   -1
100
AcDbLine
 10
20
 20
300
 11
20
 21
300
  0
CIRCLE
  5
204
100
AcDbEntity
  8
PolarPattern002
  6
ByLayer
 62
  256
370
   -1
100
AcDbCircle
 10
0
 20
300
 40
20
  0
CIRCLE
  5
205
100
AcDbEntity
  8
PolarPattern002
  6
ByLayer
 62
  256
370
   -1
100
AcDbCircle
 10
0
 20
300
 40
20
  0
LINE
  5
206
100
AcDbEntity
  8
PolarPattern002
  6
ByLayer
 62
  256
370
   -1
100
AcDbLine
 10
133.283
 20
269.51
 11
133.283
 21
269.51
  0
LINE
  5
207
100
AcDbEntity
  8
PolarPattern002
  6
ByLayer
 62
  256
370
   -1
100
AcDbLine
 10
133.283
 20
269.51
 11
133.283
 21
269.51
  0
CIRCLE
  5
208
100
AcDbEntity
  8
PolarPattern002
  6
ByLayer
 62
  256
370
   -1
100
AcDbCircle
 10
114.805
 20
277.164
 40
20
  0
CIRCLE
  5
209
100
AcDbEntity
  8
PolarPattern002
  6
ByLayer
 62
  256
370
   -1
100
AcDbCircle
 10
114.805
 20
277.164
 40
20
  0
LINE
  5
20A
100
AcDbEntity
  8
PolarPattern002
  6
ByLayer
 62
  256
370
   -1
100
AcDbLine
 10
226.274
 20
197.99
 11
226.274
 21
197.99
  0
LINE
  5
20B
100
AcDbEntity
  8
PolarPattern002
  6
ByLayer
 62
  256
370
   -1
100
AcDbLine
 10
226.274
 20
197.99
 11
226.274
 21
197.99
  0
CIRCLE
  5
20C
100
AcDbEntity
  8
PolarPattern002
  6
ByLayer
 62
  256
370
   -1
100
AcDbCircle
 10
212.132
 20
212.132
 40
20
  0
CIRCLE
  5
20D
100
AcDbEntity
  8
PolarPattern002
  6
ByLayer
 62
  256
370
   -1
100
AcDbCircle
 10
212.132
 20
212.132
 40
20
  0
ENDBLK
  5
57
330
55
100
AcDbEntity
  8
0
100
AcDbBlockEnd
  0
BLOCK
  5
59
330
58
100
AcDbEntity
  8
0
100
AcDbBlockBegin
  2
Croce di Malta Driver leva-BodyHole
 70
    0
 10
0
 20
0
  3
Croce di Malta Driver leva-BodyHole
  1

  0
ARC
  5
20E
100
AcDbEntity
  8
Hole
  6
ByLayer
 62
  256
370
   -1
100
AcDbCircle
 10
0
 20
0
 40
40
100
AcDbArc
 50
136.919
 51
43.0809
  0
LINE
  5
20F
100
AcDbEntity
  8
Hole
  6
ByLayer
 62
  256
370
   -1
100
AcDbLine
 10
-29.21559999999999
 20
27.32119999999998
 11
-5.843119999999999
 21
52.31420000000003
  0
LINE
  5
210
100
AcDbEntity
  8
Hole
  6
ByLayer
 62
  256
370
   -1
100
AcDbLine
 10
29.21559999999999
 20
27.32119999999998
 11
5.843119999999999
 21
52.31420000000003
  0
ARC
  5
211
100
AcDbEntity
  8
Hole
  6
ByLayer
 62
  256
370
   -1
100
AcDbCircle
 10
0
 20
46.85000000000002
 40
8
100
AcDbArc
 50
43.0809
 51
136.919
  0
CIRCLE
  5
212
100
AcDbEntity
  8
Hole
  6
ByLayer
 62
  256
370
   -1
100
AcDbCircle
 10
-24.74869999999999
 20
-24.74869999999999
 40
2
  0
CIRCLE
  5
213
100
AcDbEntity
  8
Hole
  6
ByLayer
 62
  256
370
   -1
100
AcDbCircle
 10
-35
 20
0
 40
2
  0
CIRCLE
  5
214
100
AcDbEntity
  8
Hole
  6
ByLayer
 62
  256
370
   -1
100
AcDbCircle
 10
0
 20
-35
 40
2
  0
CIRCLE
  5
215
100
AcDbEntity
  8
Hole
  6
ByLayer
 62
  256
370
   -1
100
AcDbCircle
 10
24.74869999999999
 20
-24.74869999999999
 40
2
  0
CIRCLE
  5
216
100
AcDbEntity
  8
Hole
  6
ByLayer
 62
  256
370
   -1
100
AcDbCircle
 10
35
 20
0
 40
2
  0
CIRCLE
  5
217
100
AcDbEntity
  8
Hole
  6
ByLayer
 62
  256
370
   -1
100
AcDbCircle
 10
0
 20
46.85000000000002
 40
3
  0
CIRCLE
  5
218
100
AcDbEntity
  8
Hole
  6
ByLayer
 62
  256
370
   -1
100
AcDbCircle
 10
0
 20
0
 40
7.5
  0
LINE
  5
219
100
AcDbEntity
  8
Hole
  6
ByLayer
 62
  256
370
   -1
100
AcDbLine
 10
-29.21559999999999
 20
27.32119999999998
 11
-29.21559999999999
 21
27.32119999999998
  0
LINE
  5
21A
100
AcDbEntity
  8
Hole
  6
ByLayer
 62
  256
370
   -1
100
AcDbLine
 10
29.21559999999999
 20
27.32119999999998
 11
29.21559999999999
 21
27.32119999999998
  0
ARC
  5
21B
100
AcDbEntity
  8
Hole
  6
ByLayer
 62
  256
370
   -1
100
AcDbCircle
 10
0
 20
0
 40
40
100
AcDbArc
 50
136.919
 51
43.0809
  0
ARC
  5
21C
100
AcDbEntity
  8
Hole
  6
ByLayer
 62
  256
370
   -1
100
AcDbCircle
 10
0
 20
0
 40
40
100
AcDbArc
 50
136.919
 51
43.0809
  0
LINE
  5
21D
100
AcDbEntity
  8
Hole
  6
ByLayer
 62
  256
370
   -1
100
AcDbLine
 10
-29.21559999999999
 20
27.32119999999998
 11
-29.21559999999999
 21
27.32119999999998
  0
LINE
  5
21E
100
AcDbEntity
  8
Hole
  6
ByLayer
 62
  256
370
   -1
100
AcDbLine
 10
-5.843119999999999
 20
52.31420000000003
 11
-5.843119999999999
 21
52.31420000000003
  0
LINE
  5
21F
100
AcDbEntity
  8
Hole
  6
ByLayer
 62
  256
370
   -1
100
AcDbLine
 10
-29.21559999999999
 20
27.32119999999998
 11
-5.843119999999999
 21
52.31420000000003
  0
LINE
  5
220
100
AcDbEntity
  8
Hole
  6
ByLayer
 62
  256
370
   -1
100
AcDbLine
 10
-29.21559999999999
 20
27.32119999999998
 11
-5.843119999999999
 21
52.31420000000003
  0
LINE
  5
221
100
AcDbEntity
  8
Hole
  6
ByLayer
 62
  256
370
   -1
100
AcDbLine
 10
29.21559999999999
 20
27.32119999999998
 11
29.21559999999999
 21
27.32119999999998
  0
LINE
  5
222
100
AcDbEntity
  8
Hole
  6
ByLayer
 62
  256
370
   -1
100
AcDbLine
 10
5.843119999999999
 20
52.31420000000003
 11
5.843119999999999
 21
52.31420000000003
  0
LINE
  5
223
100
AcDbEntity
  8
Hole
  6
ByLayer
 62
  256
370
   -1
100
AcDbLine
 10
29.21559999999999
 20
27.32119999999998
 11
5.843119999999999
 21
52.31420000000003
  0
LINE
  5
224
100
AcDbEntity
  8
Hole
  6
ByLayer
 62
  256
370
   -1
100
AcDbLine
 10
29.21559999999999
 20
27.32119999999998
 11
5.843119999999999
 21
52.31420000000003
  0
LINE
  5
225
100
AcDbEntity
  8
Hole
  6
ByLayer
 62
  256
370
   -1
100
AcDbLine
 10
5.843119999999999
 20
52.31420000000003
 11
5.843119999999999
 21
52.31420000000003
  0
LINE
  5
226
100
AcDbEntity
  8
Hole
  6
ByLayer
 62
  256
370
   -1
100
AcDbLine
 10
-5.843119999999999
 20
52.31420000000003
 11
-5.843119999999999
 21
52.31420000000003
  0
ARC
  5
227
100
AcDbEntity
  8
Hole
  6
ByLayer
 62
  256
370
   -1
100
AcDbCircle
 10
0
 20
46.85000000000002
 40
8
100
AcDbArc
 50
43.0809
 51
136.919
  0
ARC
  5
228
100
AcDbEntity
  8
Hole
  6
ByLayer
 62
  256
370
   -1
100
AcDbCircle
 10
0
 20
46.85000000000002
 40
8
100
AcDbArc
 50
43.0809
 51
136.919
  0
CIRCLE
  5
229
100
AcDbEntity
  8
Hole
  6
ByLayer
 62
  256
370
   -1
100
AcDbCircle
 10
-24.74869999999999
 20
-24.74869999999999
 40
2
  0
LINE
  5
22A
100
AcDbEntity
  8
Hole
  6
ByLayer
 62
  256
370
   -1
100
AcDbLine
 10
-23.33449999999999
 20
-23.33450000000005
 11
-23.33449999999999
 21
-23.33450000000005
  0
CIRCLE
  5
22B
100
AcDbEntity
  8
Hole
  6
ByLayer
 62
  256
370
   -1
100
AcDbCircle
 10
-24.74869999999999
 20
-24.74869999999999
 40
2
  0
LINE
  5
22C
100
AcDbEntity
  8
Hole
  6
ByLayer
 62
  256
370
   -1
100
AcDbLine
 10
-23.33449999999999
 20
-23.33450000000005
 11
-23.33449999999999
 21
-23.33450000000005
  0
CIRCLE
  5
22D
100
AcDbEntity
  8
Hole
  6
ByLayer
 62
  256
370
   -1
100
AcDbCircle
 10
-35
 20
0
 40
2
  0
LINE
  5
22E
100
AcDbEntity
  8
Hole
  6
ByLayer
 62
  256
370
   -1
100
AcDbLine
 10
-33
 20
0
 11
-33
 21
0
  0
CIRCLE
  5
22F
100
AcDbEntity
  8
Hole
  6
ByLayer
 62
  256
370
   -1
100
AcDbCircle
 10
-35
 20
0
 40
2
  0
LINE
  5
230
100
AcDbEntity
  8
Hole
  6
ByLayer
 62
  256
370
   -1
100
AcDbLine
 10
-33
 20
0
 11
-33
 21
0
  0
CIRCLE
  5
231
100
AcDbEntity
  8
Hole
  6
ByLayer
 62
  256
370
   -1
100
AcDbCircle
 10
0
 20
-35
 40
2
  0
LINE
  5
232
100
AcDbEntity
  8
Hole
  6
ByLayer
 62
  256
370
   -1
100
AcDbLine
 10
0
 20
-33
 11
0
 21
-33
  0
CIRCLE
  5
233
100
AcDbEntity
  8
Hole
  6
ByLayer
 62
  256
370
   -1
100
AcDbCircle
 10
0
 20
-35
 40
2
  0
LINE
  5
234
100
AcDbEntity
  8
Hole
  6
ByLayer
 62
  256
370
   -1
100
AcDbLine
 10
0
 20
-33
 11
0
 21
-33
  0
CIRCLE
  5
235
100
AcDbEntity
  8
Hole
  6
ByLayer
 62
  256
370
   -1
100
AcDbCircle
 10
24.74869999999999
 20
-24.74869999999999
 40
2
  0
LINE
  5
236
100
AcDbEntity
  8
Hole
  6
ByLayer
 62
  256
370
   -1
100
AcDbLine
 10
23.33450000000005
 20
-23.33450000000005
 11
23.33450000000005
 21
-23.33450000000005
  0
CIRCLE
  5
237
100
AcDbEntity
  8
Hole
  6
ByLayer
 62
  256
370
   -1
100
AcDbCircle
 10
24.74869999999999
 20
-24.74869999999999
 40
2
  0
LINE
  5
238
100
AcDbEntity
  8
Hole
  6
ByLayer
 62
  256
370
   -1
100
AcDbLine
 10
23.33450000000005
 20
-23.33450000000005
 11
23.33450000000005
 21
-23.33450000000005
  0
CIRCLE
  5
239
100
AcDbEntity
  8
Hole
  6
ByLayer
 62
  256
370
   -1
100
AcDbCircle
 10
35
 20
0
 40
2
  0
LINE
  5
23A
100
AcDbEntity
  8
Hole
  6
ByLayer
 62
  256
370
   -1
100
AcDbLine
 10
33
 20
0
 11
33
 21
0
  0
CIRCLE
  5
23B
100
AcDbEntity
  8
Hole
  6
ByLayer
 62
  256
370
   -1
100
AcDbCircle
 10
35
 20
0
 40
2
  0
LINE
  5
23C
100
AcDbEntity
  8
Hole
  6
ByLayer
 62
  256
370
   -1
100
AcDbLine
 10
33
 20
0
 11
33
 21
0
  0
LINE
  5
23D
100
AcDbEntity
  8
Hole
  6
ByLayer
 62
  256
370
   -1
100
AcDbLine
 10
3
 20
46.85000000000002
 11
3
 21
46.85000000000002
  0
LINE
  5
23E
100
AcDbEntity
  8
Hole
  6
ByLayer
 62
  256
370
   -1
100
AcDbLine
 10
3
 20
46.85000000000002
 11
3
 21
46.85000000000002
  0
CIRCLE
  5
23F
100
AcDbEntity
  8
Hole
  6
ByLayer
 62
  256
370
   -1
100
AcDbCircle
 10
0
 20
46.85000000000002
 40
3
  0
CIRCLE
  5
240
100
AcDbEntity
  8
Hole
  6
ByLayer
 62
  256
370
   -1
100
AcDbCircle
 10
0
 20
46.85000000000002
 40
3
  0
LINE
  5
241
100
AcDbEntity
  8
Hole
  6
ByLayer
 62
  256
370
   -1
100
AcDbLine
 10
7.5
 20
0
 11
7.5
 21
0
  0
LINE
  5
242
100
AcDbEntity
  8
Hole
  6
ByLayer
 62
  256
370
   -1
100
AcDbLine
 10
7.5
 20
0
 11
7.5
 21
0
  0
ARC
  5
243
100
AcDbEntity
  8
Hole
  6
ByLayer
 62
  256
370
   -1
100
AcDbCircle
 10
0
 20
0
 40
40
100
AcDbArc
 50
136.919
 51
43.0809
  0
LINE
  5
244
100
AcDbEntity
  8
Hole
  6
ByLayer
 62
  256
370
   -1
100
AcDbLine
 10
-29.21559999999999
 20
27.32119999999998
 11
-5.843119999999999
 21
52.31420000000003
  0
LINE
  5
245
100
AcDbEntity
  8
Hole
  6
ByLayer
 62
  256
370
   -1
100
AcDbLine
 10
29.21559999999999
 20
27.32119999999998
 11
5.843119999999999
 21
52.31420000000003
  0
ARC
  5
246
100
AcDbEntity
  8
Hole
  6
ByLayer
 62
  256
370
   -1
100
AcDbCircle
 10
0
 20
46.85000000000002
 40
8
100
AcDbArc
 50
43.0809
 51
136.919
  0
CIRCLE
  5
247
100
AcDbEntity
  8
Hole
  6
ByLayer
 62
  256
370
   -1
100
AcDbCircle
 10
-24.74869999999999
 20
-24.74869999999999
 40
2
  0
CIRCLE
  5
248
100
AcDbEntity
  8
Hole
  6
ByLayer
 62
  256
370
   -1
100
AcDbCircle
 10
-35
 20
0
 40
2
  0
CIRCLE
  5
249
100
AcDbEntity
  8
Hole
  6
ByLayer
 62
  256
370
   -1
100
AcDbCircle
 10
0
 20
-35
 40
2
  0
CIRCLE
  5
24A
100
AcDbEntity
  8
Hole
  6
ByLayer
 62
  256
370
   -1
100
AcDbCircle
 10
24.74869999999999
 20
-24.74869999999999
 40
2
  0
CIRCLE
  5
24B
100
AcDbEntity
  8
Hole
  6
ByLayer
 62
  256
370
   -1
100
AcDbCircle
 10
35
 20
0
 40
2
  0
CIRCLE
  5
24C
100
AcDbEntity
  8
Hole
  6
ByLayer
 62
  256
370
   -1
100
AcDbCircle
 10
0
 20
46.85000000000002
 40
3
  0
LINE
  5
24D
100
AcDbEntity
  8
Hole
  6
ByLayer
 62
  256
370
   -1
100
AcDbLine
 10
-2.5
 20
0
 11
-2.5
 21
0
  0
LINE
  5
24E
100
AcDbEntity
  8
Hole
  6
ByLayer
 62
  256
370
   -1
100
AcDbLine
 10
-2.5
 20
0
 11
-2.5
 21
0
  0
CIRCLE
  5
24F
100
AcDbEntity
  8
Hole
  6
ByLayer
 62
  256
370
   -1
100
AcDbCircle
 10
0
 20
0
 40
0
  0
LINE
  5
250
100
AcDbEntity
  8
Hole
  6
ByLayer
 62
  256
370
   -1
100
AcDbLine
 10
-2.5
 20
0
 11
0
 21
0
  0
LINE
  5
251
100
AcDbEntity
  8
Hole
  6
ByLayer
 62
  256
370
   -1
100
AcDbLine
 10
-2.5
 20
0
 11
0
 21
0
  0
ENDBLK
  5
5A
330
58
100
AcDbEntity
  8
0
100
AcDbBlockEnd
  0
BLOCK
  5
5C
330
5B
100
AcDbEntity
  8
0
100
AcDbBlockBegin
  2
Trave porta disco-BodyPocket001
 70
    0
 10
0
 20
0
  3
Trave porta disco-BodyPocket001
  1

  0
LINE
  5
252
100
AcDbEntity
  8
Pocket001
  6
ByLayer
 62
  256
370
   -1
100
AcDbLine
 10
-500
 20
-100
 11
-500
 21
-100
  0
LINE
  5
253
100
AcDbEntity
  8
Pocket001
  6
ByLayer
 62
  256
370
   -1
100
AcDbLine
 10
500
 20
-100
 11
500
 21
-100
  0
LINE
  5
254
100
AcDbEntity
  8
Pocket001
  6
ByLayer
 62
  256
370
   -1
100
AcDbLine
 10
-500
 20
-100
 11
500
 21
-100
  0
LINE
  5
255
100
AcDbEntity
  8
Pocket001
  6
ByLayer
 62
  256
370
   -1
100
AcDbLine
 10
-500
 20
-100
 11
500
 21
-100
  0
LINE
  5
256
100
AcDbEntity
  8
Pocket001
  6
ByLayer
 62
  256
370
   -1
100
AcDbLine
 10
-500
 20
100
 11
-500
 21
100
  0
LINE
  5
257
100
AcDbEntity
  8
Pocket001
  6
ByLayer
 62
  256
370
   -1
100
AcDbLine
 10
-500
 20
-100
 11
-500
 21
-100
  0
LINE
  5
258
100
AcDbEntity
  8
Pocket001
  6
ByLayer
 62
  256
370
   -1
100
AcDbLine
 10
-500
 20
100
 11
-500
 21
-100
  0
LINE
  5
259
100
AcDbEntity
  8
Pocket001
  6
ByLayer
 62
  256
370
   -1
100
AcDbLine
 10
-500
 20
100
 11
-500
 21
-100
  0
LINE
  5
25A
100
AcDbEntity
  8
Pocket001
  6
ByLayer
 62
  256
370
   -1
100
AcDbLine
 10
500
 20
-100
 11
500
 21
-100
  0
LINE
  5
25B
100
AcDbEntity
  8
Pocket001
  6
ByLayer
 62
  256
370
   -1
100
AcDbLine
 10
500
 20
100
 11
500
 21
100
  0
LINE
  5
25C
100
AcDbEntity
  8
Pocket001
  6
ByLayer
 62
  256
370
   -1
100
AcDbLine
 10
500
 20
-100
 11
500
 21
100
  0
LINE
  5
25D
100
AcDbEntity
  8
Pocket001
  6
ByLayer
 62
  256
370
   -1
100
AcDbLine
 10
500
 20
-100
 11
500
 21
100
  0
LINE
  5
25E
100
AcDbEntity
  8
Pocket001
  6
ByLayer
 62
  256
370
   -1
100
AcDbLine
 10
-500
 20
-100
 11
500
 21
-100
  0
LINE
  5
25F
100
AcDbEntity
  8
Pocket001
  6
ByLayer
 62
  256
370
   -1
100
AcDbLine
 10
-500
 20
100
 11
-500
 21
-100
  0
LINE
  5
260
100
AcDbEntity
  8
Pocket001
  6
ByLayer
 62
  256
370
   -1
100
AcDbLine
 10
500
 20
-100
 11
500
 21
100
  0
LINE
  5
261
100
AcDbEntity
  8
Pocket001
  6
ByLayer
 62
  256
370
   -1
100
AcDbLine
 10
500
 20
100
 11
-500
 21
100
  0
ARC
  5
262
100
AcDbEntity
  8
Pocket001
  6
ByLayer
 62
  256
370
   -1
100
AcDbCircle
 10
-470
 20
-70
 40
5
100
AcDbArc
 50
180
 51
0
  0
LINE
  5
263
100
AcDbEntity
  8
Pocket001
  6
ByLayer
 62
  256
370
   -1
100
AcDbLine
 10
-465
 20
-70
 11
-465
 21
-50
  0
ARC
  5
264
100
AcDbEntity
  8
Pocket001
  6
ByLayer
 62
  256
370
   -1
100
AcDbCircle
 10
-470
 20
-50
 40
5
100
AcDbArc
 50
0
 51
180
  0
LINE
  5
265
100
AcDbEntity
  8
Pocket001
  6
ByLayer
 62
  256
370
   -1
100
AcDbLine
 10
-475
 20
-70
 11
-475
 21
-50
  0
CIRCLE
  5
266
100
AcDbEntity
  8
Pocket001
  6
ByLayer
 62
  256
370
   -1
100
AcDbCircle
 10
0
 20
-50
 40
4
  0
ARC
  5
267
100
AcDbEntity
  8
Pocket001
  6
ByLayer
 62
  256
370
   -1
100
AcDbCircle
 10
470
 20
-70
 40
5
100
AcDbArc
 50
180
 51
0
  0
LINE
  5
268
100
AcDbEntity
  8
Pocket001
  6
ByLayer
 62
  256
370
   -1
100
AcDbLine
 10
475
 20
-70
 11
475
 21
-50
  0
ARC
  5
269
100
AcDbEntity
  8
Pocket001
  6
ByLayer
 62
  256
370
   -1
100
AcDbCircle
 10
470
 20
-50
 40
5
100
AcDbArc
 50
0
 51
180
  0
LINE
  5
26A
100
AcDbEntity
  8
Pocket001
  6
ByLayer
 62
  256
370
   -1
100
AcDbLine
 10
465
 20
-70
 11
465
 21
-50
  0
CIRCLE
  5
26B
100
AcDbEntity
  8
Pocket001
  6
ByLayer
 62
  256
370
   -1
100
AcDbCircle
 10
50
 20
0
 40
4
  0
CIRCLE
  5
26C
100
AcDbEntity
  8
Pocket001
  6
ByLayer
 62
  256
370
   -1
100
AcDbCircle
 10
-50
 20
0
 40
4
  0
ARC
  5
26D
100
AcDbEntity
  8
Pocket001
  6
ByLayer
 62
  256
370
   -1
100
AcDbCircle
 10
-470
 20
50
 40
5
100
AcDbArc
 50
180
 51
0
  0
LINE
  5
26E
100
AcDbEntity
  8
Pocket001
  6
ByLayer
 62
  256
370
   -1
100
AcDbLine
 10
-465
 20
50
 11
-465
 21
70
  0
ARC
  5
26F
100
AcDbEntity
  8
Pocket001
  6
ByLayer
 62
  256
370
   -1
100
AcDbCircle
 10
-470
 20
70
 40
5
100
AcDbArc
 50
0
 51
180
  0
LINE
  5
270
100
AcDbEntity
  8
Pocket001
  6
ByLayer
 62
  256
370
   -1
100
AcDbLine
 10
-475
 20
50
 11
-475
 21
70
  0
CIRCLE
  5
271
100
AcDbEntity
  8
Pocket001
  6
ByLayer
 62
  256
370
   -1
100
AcDbCircle
 10
183.7
 20
0
 40
25
  0
CIRCLE
  5
272
100
AcDbEntity
  8
Pocket001
  6
ByLayer
 62
  256
370
   -1
100
AcDbCircle
 10
0
 20
50
 40
4
  0
ARC
  5
273
100
AcDbEntity
  8
Pocket001
  6
ByLayer
 62
  256
370
   -1
100
AcDbCircle
 10
470
 20
50
 40
5
100
AcDbArc
 50
180
 51
0
  0
LINE
  5
274
100
AcDbEntity
  8
Pocket001
  6
ByLayer
 62
  256
370
   -1
100
AcDbLine
 10
475
 20
50
 11
475
 21
70
  0
ARC
  5
275
100
AcDbEntity
  8
Pocket001
  6
ByLayer
 62
  256
370
   -1
100
AcDbCircle
 10
470
 20
70
 40
5
100
AcDbArc
 50
0
 51
180
  0
LINE
  5
276
100
AcDbEntity
  8
Pocket001
  6
ByLayer
 62
  256
370
   -1
100
AcDbLine
 10
465
 20
50
 11
465
 21
70
  0
LINE
  5
277
100
AcDbEntity
  8
Pocket001
  6
ByLayer
 62
  256
370
   -1
100
AcDbLine
 10
-500
 20
-100
 11
500
 21
-100
  0
LINE
  5
278
100
AcDbEntity
  8
Pocket001
  6
ByLayer
 62
  256
370
   -1
100
AcDbLine
 10
-500
 20
100
 11
-500
 21
-100
  0
LINE
  5
279
100
AcDbEntity
  8
Pocket001
  6
ByLayer
 62
  256
370
   -1
100
AcDbLine
 10
500
 20
-100
 11
500
 21
100
  0
LINE
  5
27A
100
AcDbEntity
  8
Pocket001
  6
ByLayer
 62
  256
370
   -1
100
AcDbLine
 10
500
 20
100
 11
-500
 21
100
  0
ARC
  5
27B
100
AcDbEntity
  8
Pocket001
  6
ByLayer
 62
  256
370
   -1
100
AcDbCircle
 10
-470
 20
-70
 40
5
100
AcDbArc
 50
180
 51
0
  0
LINE
  5
27C
100
AcDbEntity
  8
Pocket001
  6
ByLayer
 62
  256
370
   -1
100
AcDbLine
 10
-465
 20
-70
 11
-465
 21
-50
  0
ARC
  5
27D
100
AcDbEntity
  8
Pocket001
  6
ByLayer
 62
  256
370
   -1
100
AcDbCircle
 10
-470
 20
-50
 40
5
100
AcDbArc
 50
8.14222e-14
 51
180
  0
LINE
  5
27E
100
AcDbEntity
  8
Pocket001
  6
ByLayer
 62
  256
370
   -1
100
AcDbLine
 10
-475
 20
-70
 11
-475
 21
-50
  0
CIRCLE
  5
27F
100
AcDbEntity
  8
Pocket001
  6
ByLayer
 62
  256
370
   -1
100
AcDbCircle
 10
0
 20
-50
 40
4
  0
ARC
  5
280
100
AcDbEntity
  8
Pocket001
  6
ByLayer
 62
  256
370
   -1
100
AcDbCircle
 10
470
 20
-70
 40
5
100
AcDbArc
 50
180
 51
0
  0
LINE
  5
281
100
AcDbEntity
  8
Pocket001
  6
ByLayer
 62
  256
370
   -1
100
AcDbLine
 10
475
 20
-70
 11
475
 21
-50
  0
ARC
  5
282
100
AcDbEntity
  8
Pocket001
  6
ByLayer
 62
  256
370
   -1
100
AcDbCircle
 10
470
 20
-50
 40
5
100
AcDbArc
 50
0
 51
180
  0
LINE
  5
283
100
AcDbEntity
  8
Pocket001
  6
ByLayer
 62
  256
370
   -1
100
AcDbLine
 10
465
 20
-70
 11
465
 21
-50
  0
CIRCLE
  5
284
100
AcDbEntity
  8
Pocket001
  6
ByLayer
 62
  256
370
   -1
100
AcDbCircle
 10
50
 20
0
 40
4
  0
CIRCLE
  5
285
100
AcDbEntity
  8
Pocket001
  6
ByLayer
 62
  256
370
   -1
100
AcDbCircle
 10
-50
 20
0
 40
4
  0
ARC
  5
286
100
AcDbEntity
  8
Pocket001
  6
ByLayer
 62
  256
370
   -1
100
AcDbCircle
 10
-470
 20
50
 40
5
100
AcDbArc
 50
180
 51
0
  0
LINE
  5
287
100
AcDbEntity
  8
Pocket001
  6
ByLayer
 62
  256
370
   -1
100
AcDbLine
 10
-465
 20
50
 11
-465
 21
70
  0
ARC
  5
288
100
AcDbEntity
  8
Pocket001
  6
ByLayer
 62
  256
370
   -1
100
AcDbCircle
 10
-470
 20
70
 40
5
100
AcDbArc
 50
0
 51
180
  0
LINE
  5
289
100
AcDbEntity
  8
Pocket001
  6
ByLayer
 62
  256
370
   -1
100
AcDbLine
 10
-475
 20
50
 11
-475
 21
70
  0
CIRCLE
  5
28A
100
AcDbEntity
  8
Pocket001
  6
ByLayer
 62
  256
370
   -1
100
AcDbCircle
 10
183.7
 20
0
 40
25
  0
CIRCLE
  5
28B
100
AcDbEntity
  8
Pocket001
  6
ByLayer
 62
  256
370
   -1
100
AcDbCircle
 10
0
 20
50
 40
4
  0
ARC
  5
28C
100
AcDbEntity
  8
Pocket001
  6
ByLayer
 62
  256
370
   -1
100
AcDbCircle
 10
470
 20
50
 40
5
100
AcDbArc
 50
180
 51
0
  0
LINE
  5
28D
100
AcDbEntity
  8
Pocket001
  6
ByLayer
 62
  256
370
   -1
100
AcDbLine
 10
475
 20
50
 11
475
 21
70
  0
ARC
  5
28E
100
AcDbEntity
  8
Pocket001
  6
ByLayer
 62
  256
370
   -1
100
AcDbCircle
 10
470
 20
70
 40
5
100
AcDbArc
 50
0
 51
180
  0
LINE
  5
28F
100
AcDbEntity
  8
Pocket001
  6
ByLayer
 62
  256
370
   -1
100
AcDbLine
 10
465
 20
50
 11
465
 21
70
  0
LINE
  5
290
100
AcDbEntity
  8
Pocket001
  6
ByLayer
 62
  256
370
   -1
100
AcDbLine
 10
500
 20
100
 11
500
 21
100
  0
LINE
  5
291
100
AcDbEntity
  8
Pocket001
  6
ByLayer
 62
  256
370
   -1
100
AcDbLine
 10
-500
 20
100
 11
-500
 21
100
  0
LINE
  5
292
100
AcDbEntity
  8
Pocket001
  6
ByLayer
 62
  256
370
   -1
100
AcDbLine
 10
500
 20
100
 11
-500
 21
100
  0
LINE
  5
293
100
AcDbEntity
  8
Pocket001
  6
ByLayer
 62
  256
370
   -1
100
AcDbLine
 10
500
 20
100
 11
-500
 21
100
  0
ARC
  5
294
100
AcDbEntity
  8
Pocket001
  6
ByLayer
 62
  256
370
   -1
100
AcDbCircle
 10
-470
 20
-70
 40
5
100
AcDbArc
 50
180
 51
0
  0
LINE
  5
295
100
AcDbEntity
  8
Pocket001
  6
ByLayer
 62
  256
370
   -1
100
AcDbLine
 10
-465
 20
-70
 11
-465
 21
-70
  0
ARC
  5
296
100
AcDbEntity
  8
Pocket001
  6
ByLayer
 62
  256
370
   -1
100
AcDbCircle
 10
-470
 20
-70
 40
5
100
AcDbArc
 50
180
 51
0
  0
LINE
  5
297
100
AcDbEntity
  8
Pocket001
  6
ByLayer
 62
  256
370
   -1
100
AcDbLine
 10
-475
 20
-70
 11
-475
 21
-70
  0
LINE
  5
298
100
AcDbEntity
  8
Pocket001
  6
ByLayer
 62
  256
370
   -1
100
AcDbLine
 10
-465
 20
-70
 11
-465
 21
-50
  0
LINE
  5
299
100
AcDbEntity
  8
Pocket001
  6
ByLayer
 62
  256
370
   -1
100
AcDbLine
 10
-465
 20
-50
 11
-465
 21
-50
  0
LINE
  5
29A
100
AcDbEntity
  8
Pocket001
  6
ByLayer
 62
  256
370
   -1
100
AcDbLine
 10
-465
 20
-70
 11
-465
 21
-50
  0
LINE
  5
29B
100
AcDbEntity
  8
Pocket001
  6
ByLayer
 62
  256
370
   -1
100
AcDbLine
 10
-465
 20
-70
 11
-465
 21
-70
  0
ARC
  5
29C
100
AcDbEntity
  8
Pocket001
  6
ByLayer
 62
  256
370
   -1
100
AcDbCircle
 10
-470
 20
-50
 40
5
100
AcDbArc
 50
8.14222e-14
 51
180
  0
LINE
  5
29D
100
AcDbEntity
  8
Pocket001
  6
ByLayer
 62
  256
370
   -1
100
AcDbLine
 10
-475
 20
-50
 11
-475
 21
-50
  0
ARC
  5
29E
100
AcDbEntity
  8
Pocket001
  6
ByLayer
 62
  256
370
   -1
100
AcDbCircle
 10
-470
 20
-50
 40
5
100
AcDbArc
 50
0
 51
180
  0
LINE
  5
29F
100
AcDbEntity
  8
Pocket001
  6
ByLayer
 62
  256
370
   -1
100
AcDbLine
 10
-465
 20
-50
 11
-465
 21
-50
  0
LINE
  5
2A0
100
AcDbEntity
  8
Pocket001
  6
ByLayer
 62
  256
370
   -1
100
AcDbLine
 10
-475
 20
-70
 11
-475
 21
-50
  0
LINE
  5
2A1
100
AcDbEntity
  8
Pocket001
  6
ByLayer
 62
  256
370
   -1
100
AcDbLine
 10
-475
 20
-50
 11
-475
 21
-50
  0
LINE
  5
2A2
100
AcDbEntity
  8
Pocket001
  6
ByLayer
 62
  256
370
   -1
100
AcDbLine
 10
-475
 20
-70
 11
-475
 21
-50
  0
LINE
  5
2A3
100
AcDbEntity
  8
Pocket001
  6
ByLayer
 62
  256
370
   -1
100
AcDbLine
 10
-475
 20
-70
 11
-475
 21
-70
  0
CIRCLE
  5
2A4
100
AcDbEntity
  8
Pocket001
  6
ByLayer
 62
  256
370
   -1
100
AcDbCircle
 10
0
 20
-50
 40
4
  0
LINE
  5
2A5
100
AcDbEntity
  8
Pocket001
  6
ByLayer
 62
  256
370
   -1
100
AcDbLine
 10
-4
 20
-50
 11
-4
 21
-50
  0
CIRCLE
  5
2A6
100
AcDbEntity
  8
Pocket001
  6
ByLayer
 62
  256
370
   -1
100
AcDbCircle
 10
0
 20
-50
 40
4
  0
LINE
  5
2A7
100
AcDbEntity
  8
Pocket001
  6
ByLayer
 62
  256
370
   -1
100
AcDbLine
 10
-4
 20
-50
 11
-4
 21
-50
  0
ARC
  5
2A8
100
AcDbEntity
  8
Pocket001
  6
ByLayer
 62
  256
370
   -1
100
AcDbCircle
 10
470
 20
-70
 40
5
100
AcDbArc
 50
180
 51
0
  0
LINE
  5
2A9
100
AcDbEntity
  8
Pocket001
  6
ByLayer
 62
  256
370
   -1
100
AcDbLine
 10
475
 20
-70
 11
475
 21
-70
  0
ARC
  5
2AA
100
AcDbEntity
  8
Pocket001
  6
ByLayer
 62
  256
370
   -1
100
AcDbCircle
 10
470
 20
-70
 40
5
100
AcDbArc
 50
180
 51
0
  0
LINE
  5
2AB
100
AcDbEntity
  8
Pocket001
  6
ByLayer
 62
  256
370
   -1
100
AcDbLine
 10
465
 20
-70
 11
465
 21
-70
  0
LINE
  5
2AC
100
AcDbEntity
  8
Pocket001
  6
ByLayer
 62
  256
370
   -1
100
AcDbLine
 10
475
 20
-70
 11
475
 21
-50
  0
LINE
  5
2AD
100
AcDbEntity
  8
Pocket001
  6
ByLayer
 62
  256
370
   -1
100
AcDbLine
 10
475
 20
-50
 11
475
 21
-50
  0
LINE
  5
2AE
100
AcDbEntity
  8
Pocket001
  6
ByLayer
 62
  256
370
   -1
100
AcDbLine
 10
475
 20
-70
 11
475
 21
-50
  0
LINE
  5
2AF
100
AcDbEntity
  8
Pocket001
  6
ByLayer
 62
  256
370
   -1
100
AcDbLine
 10
475
 20
-70
 11
475
 21
-70
  0
ARC
  5
2B0
100
AcDbEntity
  8
Pocket001
  6
ByLayer
 62
  256
370
   -1
100
AcDbCircle
 10
470
 20
-50
 40
5
100
AcDbArc
 50
0
 51
180
  0
LINE
  5
2B1
100
AcDbEntity
  8
Pocket001
  6
ByLayer
 62
  256
370
   -1
100
AcDbLine
 10
465
 20
-50
 11
465
 21
-50
  0
ARC
  5
2B2
100
AcDbEntity
  8
Pocket001
  6
ByLayer
 62
  256
370
   -1
100
AcDbCircle
 10
470
 20
-50
 40
5
100
AcDbArc
 50
0
 51
180
  0
LINE
  5
2B3
100
AcDbEntity
  8
Pocket001
  6
ByLayer
 62
  256
370
   -1
100
AcDbLine
 10
475
 20
-50
 11
475
 21
-50
  0
LINE
  5
2B4
100
AcDbEntity
  8
Pocket001
  6
ByLayer
 62
  256
370
   -1
100
AcDbLine
 10
465
 20
-70
 11
465
 21
-50
  0
LINE
  5
2B5
100
AcDbEntity
  8
Pocket001
  6
ByLayer
 62
  256
370
   -1
100
AcDbLine
 10
465
 20
-50
 11
465
 21
-50
  0
LINE
  5
2B6
100
AcDbEntity
  8
Pocket001
  6
ByLayer
 62
  256
370
   -1
100
AcDbLine
 10
465
 20
-70
 11
465
 21
-50
  0
LINE
  5
2B7
100
AcDbEntity
  8
Pocket001
  6
ByLayer
 62
  256
370
   -1
100
AcDbLine
 10
465
 20
-70
 11
465
 21
-70
  0
CIRCLE
  5
2B8
100
AcDbEntity
  8
Pocket001
  6
ByLayer
 62
  256
370
   -1
100
AcDbCircle
 10
50
 20
0
 40
4
  0
LINE
  5
2B9
100
AcDbEntity
  8
Pocket001
  6
ByLayer
 62
  256
370
   -1
100
AcDbLine
 10
50
 20
-4
 11
50
 21
-4
  0
CIRCLE
  5
2BA
100
AcDbEntity
  8
Pocket001
  6
ByLayer
 62
  256
370
   -1
100
AcDbCircle
 10
50
 20
0
 40
4
  0
LINE
  5
2BB
100
AcDbEntity
  8
Pocket001
  6
ByLayer
 62
  256
370
   -1
100
AcDbLine
 10
50
 20
-4
 11
50
 21
-4
  0
CIRCLE
  5
2BC
100
AcDbEntity
  8
Pocket001
  6
ByLayer
 62
  256
370
   -1
100
AcDbCircle
 10
-50
 20
0
 40
4
  0
LINE
  5
2BD
100
AcDbEntity
  8
Pocket001
  6
ByLayer
 62
  256
370
   -1
100
AcDbLine
 10
-50
 20
4
 11
-50
 21
4
  0
CIRCLE
  5
2BE
100
AcDbEntity
  8
Pocket001
  6
ByLayer
 62
  256
370
   -1
100
AcDbCircle
 10
-50
 20
0
 40
4
  0
LINE
  5
2BF
100
AcDbEntity
  8
Pocket001
  6
ByLayer
 62
  256
370
   -1
100
AcDbLine
 10
-50
 20
4
 11
-50
 21
4
  0
ARC
  5
2C0
100
AcDbEntity
  8
Pocket001
  6
ByLayer
 62
  256
370
   -1
100
AcDbCircle
 10
-470
 20
50
 40
5
100
AcDbArc
 50
180
 51
0
  0
LINE
  5
2C1
100
AcDbEntity
  8
Pocket001
  6
ByLayer
 62
  256
370
   -1
100
AcDbLine
 10
-465
 20
50
 11
-465
 21
50
  0
ARC
  5
2C2
100
AcDbEntity
  8
Pocket001
  6
ByLayer
 62
  256
370
   -1
100
AcDbCircle
 10
-470
 20
50
 40
5
100
AcDbArc
 50
180
 51
0
  0
LINE
  5
2C3
100
AcDbEntity
  8
Pocket001
  6
ByLayer
 62
  256
370
   -1
100
AcDbLine
 10
-475
 20
50
 11
-475
 21
50
  0
LINE
  5
2C4
100
AcDbEntity
  8
Pocket001
  6
ByLayer
 62
  256
370
   -1
100
AcDbLine
 10
-465
 20
50
 11
-465
 21
70
  0
LINE
  5
2C5
100
AcDbEntity
  8
Pocket001
  6
ByLayer
 62
  256
370
   -1
100
AcDbLine
 10
-465
 20
70
 11
-465
 21
70
  0
LINE
  5
2C6
100
AcDbEntity
  8
Pocket001
  6
ByLayer
 62
  256
370
   -1
100
AcDbLine
 10
-465
 20
50
 11
-465
 21
70
  0
LINE
  5
2C7
100
AcDbEntity
  8
Pocket001
  6
ByLayer
 62
  256
370
   -1
100
AcDbLine
 10
-465
 20
50
 11
-465
 21
50
  0
ARC
  5
2C8
100
AcDbEntity
  8
Pocket001
  6
ByLayer
 62
  256
370
   -1
100
AcDbCircle
 10
-470
 20
70
 40
5
100
AcDbArc
 50
0
 51
180
  0
LINE
  5
2C9
100
AcDbEntity
  8
Pocket001
  6
ByLayer
 62
  256
370
   -1
100
AcDbLine
 10
-475
 20
70
 11
-475
 21
70
  0
ARC
  5
2CA
100
AcDbEntity
  8
Pocket001
  6
ByLayer
 62
  256
370
   -1
100
AcDbCircle
 10
-470
 20
70
 40
5
100
AcDbArc
 50
0
 51
180
  0
LINE
  5
2CB
100
AcDbEntity
  8
Pocket001
  6
ByLayer
 62
  256
370
   -1
100
AcDbLine
 10
-465
 20
70
 11
-465
 21
70
  0
LINE
  5
2CC
100
AcDbEntity
  8
Pocket001
  6
ByLayer
 62
  256
370
   -1
100
AcDbLine
 10
-475
 20
50
 11
-475
 21
70
  0
LINE
  5
2CD
100
AcDbEntity
  8
Pocket001
  6
ByLayer
 62
  256
370
   -1
100
AcDbLine
 10
-475
 20
70
 11
-475
 21
70
  0
LINE
  5
2CE
100
AcDbEntity
  8
Pocket001
  6
ByLayer
 62
  256
370
   -1
100
AcDbLine
 10
-475
 20
50
 11
-475
 21
70
  0
LINE
  5
2CF
100
AcDbEntity
  8
Pocket001
  6
ByLayer
 62
  256
370
   -1
100
AcDbLine
 10
-475
 20
50
 11
-475
 21
50
  0
LINE
  5
2D0
100
AcDbEntity
  8
Pocket001
  6
ByLayer
 62
  256
370
   -1
100
AcDbLine
 10
208.7
 20
0
 11
208.7
 21
0
  0
LINE
  5
2D1
100
AcDbEntity
  8
Pocket001
  6
ByLayer
 62
  256
370
   -1
100
AcDbLine
 10
208.7
 20
0
 11
208.7
 21
0
  0
CIRCLE
  5
2D2
100
AcDbEntity
  8
Pocket001
  6
ByLayer
 62
  256
370
   -1
100
AcDbCircle
 10
183.7
 20
0
 40
25
  0
CIRCLE
  5
2D3
100
AcDbEntity
  8
Pocket001
  6
ByLayer
 62
  256
370
   -1
100
AcDbCircle
 10
183.7
 20
0
 40
25
  0
CIRCLE
  5
2D4
100
AcDbEntity
  8
Pocket001
  6
ByLayer
 62
  256
370
   -1
100
AcDbCircle
 10
0
 20
50
 40
4
  0
LINE
  5
2D5
100
AcDbEntity
  8
Pocket001
  6
ByLayer
 62
  256
370
   -1
100
AcDbLine
 10
4
 20
50
 11
4
 21
50
  0
CIRCLE
  5
2D6
100
AcDbEntity
  8
Pocket001
  6
ByLayer
 62
  256
370
   -1
100
AcDbCircle
 10
0
 20
50
 40
4
  0
LINE
  5
2D7
100
AcDbEntity
  8
Pocket001
  6
ByLayer
 62
  256
370
   -1
100
AcDbLine
 10
4
 20
50
 11
4
 21
50
  0
ARC
  5
2D8
100
AcDbEntity
  8
Pocket001
  6
ByLayer
 62
  256
370
   -1
100
AcDbCircle
 10
470
 20
50
 40
5
100
AcDbArc
 50
180
 51
0
  0
LINE
  5
2D9
100
AcDbEntity
  8
Pocket001
  6
ByLayer
 62
  256
370
   -1
100
AcDbLine
 10
475
 20
50
 11
475
 21
50
  0
ARC
  5
2DA
100
AcDbEntity
  8
Pocket001
  6
ByLayer
 62
  256
370
   -1
100
AcDbCircle
 10
470
 20
50
 40
5
100
AcDbArc
 50
180
 51
0
  0
LINE
  5
2DB
100
AcDbEntity
  8
Pocket001
  6
ByLayer
 62
  256
370
   -1
100
AcDbLine
 10
465
 20
50
 11
465
 21
50
  0
LINE
  5
2DC
100
AcDbEntity
  8
Pocket001
  6
ByLayer
 62
  256
370
   -1
100
AcDbLine
 10
475
 20
50
 11
475
 21
70
  0
LINE
  5
2DD
100
AcDbEntity
  8
Pocket001
  6
ByLayer
 62
  256
370
   -1
100
AcDbLine
 10
475
 20
70
 11
475
 21
70
  0
LINE
  5
2DE
100
AcDbEntity
  8
Pocket001
  6
ByLayer
 62
  256
370
   -1
100
AcDbLine
 10
475
 20
50
 11
475
 21
70
  0
LINE
  5
2DF
100
AcDbEntity
  8
Pocket001
  6
ByLayer
 62
  256
370
   -1
100
AcDbLine
 10
475
 20
50
 11
475
 21
50
  0
ARC
  5
2E0
100
AcDbEntity
  8
Pocket001
  6
ByLayer
 62
  256
370
   -1
100
AcDbCircle
 10
470
 20
70
 40
5
100
AcDbArc
 50
0
 51
180
  0
LINE
  5
2E1
100
AcDbEntity
  8
Pocket001
  6
ByLayer
 62
  256
370
   -1
100
AcDbLine
 10
465
 20
70
 11
465
 21
70
  0
ARC
  5
2E2
100
AcDbEntity
  8
Pocket001
  6
ByLayer
 62
  256
370
   -1
100
AcDbCircle
 10
470
 20
70
 40
5
100
AcDbArc
 50
0
 51
180
  0
LINE
  5
2E3
100
AcDbEntity
  8
Pocket001
  6
ByLayer
 62
  256
370
   -1
100
AcDbLine
 10
475
 20
70
 11
475
 21
70
  0
LINE
  5
2E4
100
AcDbEntity
  8
Pocket001
  6
ByLayer
 62
  256
370
   -1
100
AcDbLine
 10
465
 20
50
 11
465
 21
70
  0
LINE
  5
2E5
100
AcDbEntity
  8
Pocket001
  6
ByLayer
 62
  256
370
   -1
100
AcDbLine
 10
465
 20
70
 11
465
 21
70
  0
LINE
  5
2E6
100
AcDbEntity
  8
Pocket001
  6
ByLayer
 62
  256
370
   -1
100
AcDbLine
 10
465
 20
50
 11
465
 21
70
  0
LINE
  5
2E7
100
AcDbEntity
  8
Pocket001
  6
ByLayer
 62
  256
370
   -1
100
AcDbLine
 10
465
 20
50
 11
465
 21
50
  0
CIRCLE
  5
2E8
100
AcDbEntity
  8
0
  6
ByLayer
 62
  256
370
   -1
100
AcDbCircle
 10
183.7
 20
29
 40
2
  0
CIRCLE
  5
2E9
100
AcDbEntity
  8
0
  6
ByLayer
 62
  256
370
   -1
100
AcDbCircle
 10
212.7
 20
0
 40
2
  0
CIRCLE
  5
2EA
100
AcDbEntity
  8
0
  6
ByLayer
 62
  256
370
   -1
100
AcDbCircle
 10
183.7
 20
-29
 40
2
  0
CIRCLE
  5
2EB
100
AcDbEntity
  8
0
  6
ByLayer
 62
  256
370
   -1
100
AcDbCircle
 10
154.7
 20
0
 40
2
  0
ENDBLK
  5
5D
330
5B
100
AcDbEntity
  8
0
100
AcDbBlockEnd
  0
BLOCK
  5
5F
330
5E
100
AcDbEntity
  8
0
100
AcDbBlockBegin
  2
Croce di Malta-BodyPolarPattern002
 70
    0
 10
0
 20
0
  3
Croce di Malta-BodyPolarPattern002
  1

  0
ARC
  5
2EC
100
AcDbEntity
  8
PolarPattern002
  6
ByLayer
 62
  256
370
   -1
100
AcDbCircle
 10
0
 20
0
 40
150
100
AcDbArc
 50
3.2485
 51
3.64742
  0
LINE
  5
2ED
100
AcDbEntity
  8
PolarPattern002
  6
ByLayer
 62
  256
370
   -1
100
AcDbLine
 10
149.6959999999999
 20
9.54246999999998
 11
149.6959999999999
 21
9.54246999999998
  0
ARC
  5
2EE
100
AcDbEntity
  8
PolarPattern002
  6
ByLayer
 62
  256
370
   -1
100
AcDbCircle
 10
0
 20
0
 40
150
100
AcDbArc
 50
3.2485
 51
3.64742
  0
LINE
  5
2EF
100
AcDbEntity
  8
PolarPattern002
  6
ByLayer
 62
  256
370
   -1
100
AcDbLine
 10
149.759
 20
8.5
 11
149.759
 21
8.5
  0
ARC
  5
2F0
100
AcDbEntity
  8
PolarPattern002
  6
ByLayer
 62
  256
370
   -1
100
AcDbCircle
 10
0
 20
125
 40
8.5
100
AcDbArc
 50
-180
 51
8.23801e-12
  0
LINE
  5
2F1
100
AcDbEntity
  8
PolarPattern002
  6
ByLayer
 62
  256
370
   -1
100
AcDbLine
 10
-8.5
 20
125
 11
-8.5
 21
149.759
  0
LINE
  5
2F2
100
AcDbEntity
  8
PolarPattern002
  6
ByLayer
 62
  256
370
   -1
100
AcDbLine
 10
8.5
 20
125
 11
8.5
 21
149.759
  0
ARC
  5
2F3
100
AcDbEntity
  8
PolarPattern002
  6
ByLayer
 62
  256
370
   -1
100
AcDbCircle
 10
0
 20
0
 40
150
100
AcDbArc
 50
93.24850000000001
 51
93.6474
  0
ARC
  5
2F4
100
AcDbEntity
  8
PolarPattern002
  6
ByLayer
 62
  256
370
   -1
100
AcDbCircle
 10
0
 20
0
 40
150
100
AcDbArc
 50
86.3514
 51
86.75149999999999
  0
ARC
  5
2F5
100
AcDbEntity
  8
PolarPattern002
  6
ByLayer
 62
  256
370
   -1
100
AcDbCircle
 10
-35.83619999999996
 20
180.171
 40
40.25
100
AcDbArc
 50
-108.289
 51
-49.2121
  0
ARC
  5
2F6
100
AcDbEntity
  8
PolarPattern002
  6
ByLayer
 62
  256
370
   -1
100
AcDbCircle
 10
35.84000000000003
 20
180.17
 40
40.25
100
AcDbArc
 50
-130.789
 51
-71.71210000000001
  0
ARC
  5
2F7
100
AcDbEntity
  8
PolarPattern002
  6
ByLayer
 62
  256
370
   -1
100
AcDbCircle
 10
0
 20
0
 40
150
100
AcDbArc
 50
108.851
 51
109.251
  0
ARC
  5
2F8
100
AcDbEntity
  8
PolarPattern002
  6
ByLayer
 62
  256
370
   -1
100
AcDbCircle
 10
0
 20
0
 40
150
100
AcDbArc
 50
70.74850000000001
 51
71.1474
  0
LINE
  5
2F9
100
AcDbEntity
  8
PolarPattern002
  6
ByLayer
 62
  256
370
   -1
100
AcDbLine
 10
-39.98249999999996
 20
118.738
 11
-49.45730000000003
 21
141.612
  0
LINE
  5
2FA
100
AcDbEntity
  8
PolarPattern002
  6
ByLayer
 62
  256
370
   -1
100
AcDbLine
 10
39.98249999999996
 20
118.738
 11
49.45730000000003
 21
141.612
  0
ARC
  5
2FB
100
AcDbEntity
  8
PolarPattern002
  6
ByLayer
 62
  256
370
   -1
100
AcDbCircle
 10
-47.83540000000005
 20
115.485
 40
8.5
100
AcDbArc
 50
-157.5
 51
22.5
  0
ARC
  5
2FC
100
AcDbEntity
  8
PolarPattern002
  6
ByLayer
 62
  256
370
   -1
100
AcDbCircle
 10
47.83540000000005
 20
115.485
 40
8.5
100
AcDbArc
 50
157.5
 51
-22.5
  0
LINE
  5
2FD
100
AcDbEntity
  8
PolarPattern002
  6
ByLayer
 62
  256
370
   -1
100
AcDbLine
 10
-55.6884
 20
112.232
 11
-65.16330000000005
 21
135.106
  0
LINE
  5
2FE
100
AcDbEntity
  8
PolarPattern002
  6
ByLayer
 62
  256
370
   -1
100
AcDbLine
 10
55.6884
 20
112.232
 11
65.16329999999994
 21
135.106
  0
ARC
  5
2FF
100
AcDbEntity
  8
PolarPattern002
  6
ByLayer
 62
  256
370
   -1
100
AcDbCircle
 10
0
 20
0
 40
150
100
AcDbArc
 50
115.749
 51
116.147
  0
ARC
  5
300
100
AcDbEntity
  8
PolarPattern002
  6
ByLayer
 62
  256
370
   -1
100
AcDbCircle
 10
0
 20
0
 40
150
100
AcDbArc
 50
63.8514
 51
64.25149999999999
  0
ARC
  5
301
100
AcDbEntity
  8
PolarPattern002
  6
ByLayer
 62
  256
370
   -1
100
AcDbCircle
 10
-102.057
 20
152.742
 40
40.25
100
AcDbArc
 50
-85.7891
 51
-26.7121
  0
ARC
  5
302
100
AcDbEntity
  8
PolarPattern002
  6
ByLayer
 62
  256
370
   -1
100
AcDbCircle
 10
102.0599999999999
 20
152.74
 40
40.25
100
AcDbArc
 50
-153.289
 51
-94.21210000000001
  0
ARC
  5
303
100
AcDbEntity
  8
PolarPattern002
  6
ByLayer
 62
  256
370
   -1
100
AcDbCircle
 10
0
 20
0
 40
150
100
AcDbArc
 50
131.351
 51
131.751
  0
ARC
  5
304
100
AcDbEntity
  8
PolarPattern002
  6
ByLayer
 62
  256
370
   -1
100
AcDbCircle
 10
0
 20
0
 40
150
100
AcDbArc
 50
48.2485
 51
48.6474
  0
LINE
  5
305
100
AcDbEntity
  8
PolarPattern002
  6
ByLayer
 62
  256
370
   -1
100
AcDbLine
 10
-82.37789999999995
 20
94.39879999999999
 11
-99.88519999999994
 21
111.906
  0
LINE
  5
306
100
AcDbEntity
  8
PolarPattern002
  6
ByLayer
 62
  256
370
   -1
100
AcDbLine
 10
82.37789999999995
 20
94.39879999999999
 11
99.88519999999994
 21
111.906
  0
ARC
  5
307
100
AcDbEntity
  8
PolarPattern002
  6
ByLayer
 62
  256
370
   -1
100
AcDbCircle
 10
-88.38829999999996
 20
88.38830000000002
 40
8.5
100
AcDbArc
 50
-135
 51
45
  0
ARC
  5
308
100
AcDbEntity
  8
PolarPattern002
  6
ByLayer
 62
  256
370
   -1
100
AcDbCircle
 10
88.38830000000007
 20
88.38830000000002
 40
8.5
100
AcDbArc
 50
135
 51
-45
  0
LINE
  5
309
100
AcDbEntity
  8
PolarPattern002
  6
ByLayer
 62
  256
370
   -1
100
AcDbLine
 10
-94.39879999999994
 20
82.37790000000001
 11
-111.9059999999999
 21
99.8852
  0
LINE
  5
30A
100
AcDbEntity
  8
PolarPattern002
  6
ByLayer
 62
  256
370
   -1
100
AcDbLine
 10
94.39879999999994
 20
82.37790000000001
 11
111.9059999999999
 21
99.8852
  0
ARC
  5
30B
100
AcDbEntity
  8
PolarPattern002
  6
ByLayer
 62
  256
370
   -1
100
AcDbCircle
 10
0
 20
0
 40
150
100
AcDbArc
 50
138.249
 51
138.647
  0
ARC
  5
30C
100
AcDbEntity
  8
PolarPattern002
  6
ByLayer
 62
  256
370
   -1
100
AcDbCircle
 10
0
 20
0
 40
150
100
AcDbArc
 50
41.3514
 51
41.7515
  0
ARC
  5
30D
100
AcDbEntity
  8
PolarPattern002
  6
ByLayer
 62
  256
370
   -1
100
AcDbCircle
 10
-152.74
 20
102.06
 40
40.25
100
AcDbArc
 50
-63.2891
 51
-4.21206
  0
ARC
  5
30E
100
AcDbEntity
  8
PolarPattern002
  6
ByLayer
 62
  256
370
   -1
100
AcDbCircle
 10
152.742
 20
102.057
 40
40.25
100
AcDbArc
 50
-175.789
 51
-116.712
  0
ARC
  5
30F
100
AcDbEntity
  8
PolarPattern002
  6
ByLayer
 62
  256
370
   -1
100
AcDbCircle
 10
0
 20
0
 40
150
100
AcDbArc
 50
153.851
 51
154.251
  0
ARC
  5
310
100
AcDbEntity
  8
PolarPattern002
  6
ByLayer
 62
  256
370
   -1
100
AcDbCircle
 10
0
 20
0
 40
150
100
AcDbArc
 50
25.7485
 51
26.1474
  0
LINE
  5
311
100
AcDbEntity
  8
PolarPattern002
  6
ByLayer
 62
  256
370
   -1
100
AcDbLine
 10
-112.232
 20
55.6884
 11
-135.106
 21
65.16329999999999
  0
LINE
  5
312
100
AcDbEntity
  8
PolarPattern002
  6
ByLayer
 62
  256
370
   -1
100
AcDbLine
 10
112.232
 20
55.6884
 11
135.106
 21
65.16329999999999
  0
ARC
  5
313
100
AcDbEntity
  8
PolarPattern002
  6
ByLayer
 62
  256
370
   -1
100
AcDbCircle
 10
-115.485
 20
47.83539999999999
 40
8.5
100
AcDbArc
 50
-112.5
 51
67.5
  0
ARC
  5
314
100
AcDbEntity
  8
PolarPattern002
  6
ByLayer
 62
  256
370
   -1
100
AcDbCircle
 10
115.4849999999999
 20
47.83539999999999
 40
8.5
100
AcDbArc
 50
112.5
 51
-67.5
  0
LINE
  5
315
100
AcDbEntity
  8
PolarPattern002
  6
ByLayer
 62
  256
370
   -1
100
AcDbLine
 10
-118.7380000000001
 20
39.98250000000002
 11
-141.612
 21
49.45729999999998
  0
LINE
  5
316
100
AcDbEntity
  8
PolarPattern002
  6
ByLayer
 62
  256
370
   -1
100
AcDbLine
 10
118.7380000000001
 20
39.98250000000002
 11
141.6120000000001
 21
49.45729999999998
  0
ARC
  5
317
100
AcDbEntity
  8
PolarPattern002
  6
ByLayer
 62
  256
370
   -1
100
AcDbCircle
 10
0
 20
0
 40
150
100
AcDbArc
 50
160.749
 51
161.147
  0
ARC
  5
318
100
AcDbEntity
  8
PolarPattern002
  6
ByLayer
 62
  256
370
   -1
100
AcDbCircle
 10
0
 20
0
 40
150
100
AcDbArc
 50
18.8514
 51
19.2515
  0
ARC
  5
319
100
AcDbEntity
  8
PolarPattern002
  6
ByLayer
 62
  256
370
   -1
100
AcDbCircle
 10
-180.17
 20
35.84000000000003
 40
40.25
100
AcDbArc
 50
-40.7891
 51
18.2879
  0
ARC
  5
31A
100
AcDbEntity
  8
PolarPattern002
  6
ByLayer
 62
  256
370
   -1
100
AcDbCircle
 10
180.171
 20
35.83620000000002
 40
40.25
100
AcDbArc
 50
161.711
 51
-139.212
  0
ARC
  5
31B
100
AcDbEntity
  8
PolarPattern002
  6
ByLayer
 62
  256
370
   -1
100
AcDbCircle
 10
0
 20
0
 40
150
100
AcDbArc
 50
176.351
 51
176.751
  0
ARC
  5
31C
100
AcDbEntity
  8
PolarPattern002
  6
ByLayer
 62
  256
370
   -1
100
AcDbCircle
 10
0
 20
0
 40
150
100
AcDbArc
 50
3.2485
 51
3.64742
  0
LINE
  5
31D
100
AcDbEntity
  8
PolarPattern002
  6
ByLayer
 62
  256
370
   -1
100
AcDbLine
 10
-125
 20
8.5
 11
-149.759
 21
8.5
  0
LINE
  5
31E
100
AcDbEntity
  8
PolarPattern002
  6
ByLayer
 62
  256
370
   -1
100
AcDbLine
 10
125
 20
8.5
 11
149.759
 21
8.5
  0
ARC
  5
31F
100
AcDbEntity
  8
PolarPattern002
  6
ByLayer
 62
  256
370
   -1
100
AcDbCircle
 10
-125
 20
0
 40
8.5
100
AcDbArc
 50
-90
 51
90
  0
ARC
  5
320
100
AcDbEntity
  8
PolarPattern002
  6
ByLayer
 62
  256
370
   -1
100
AcDbCircle
 10
125
 20
0
 40
8.5
100
AcDbArc
 50
90
 51
-90
  0
LINE
  5
321
100
AcDbEntity
  8
PolarPattern002
  6
ByLayer
 62
  256
370
   -1
100
AcDbLine
 10
-125
 20
-8.5
 11
-149.759
 21
-8.5
  0
LINE
  5
322
100
AcDbEntity
  8
PolarPattern002
  6
ByLayer
 62
  256
370
   -1
100
AcDbLine
 10
125
 20
-8.5
 11
149.759
 21
-8.5
  0
ARC
  5
323
100
AcDbEntity
  8
PolarPattern002
  6
ByLayer
 62
  256
370
   -1
100
AcDbCircle
 10
0
 20
0
 40
150
100
AcDbArc
 50
-176.751
 51
-176.353
  0
ARC
  5
324
100
AcDbEntity
  8
PolarPattern002
  6
ByLayer
 62
  256
370
   -1
100
AcDbCircle
 10
0
 20
0
 40
150
100
AcDbArc
 50
-3.64862
 51
-3.2485
  0
ARC
  5
325
100
AcDbEntity
  8
PolarPattern002
  6
ByLayer
 62
  256
370
   -1
100
AcDbCircle
 10
-180.171
 20
-35.83620000000002
 40
40.25
100
AcDbArc
 50
-18.2891
 51
40.7879
  0
ARC
  5
326
100
AcDbEntity
  8
PolarPattern002
  6
ByLayer
 62
  256
370
   -1
100
AcDbCircle
 10
180.1700000000001
 20
-35.84000000000003
 40
40.25
100
AcDbArc
 50
139.211
 51
-161.712
  0
ARC
  5
327
100
AcDbEntity
  8
PolarPattern002
  6
ByLayer
 62
  256
370
   -1
100
AcDbCircle
 10
0
 20
0
 40
150
100
AcDbArc
 50
-161.149
 51
-160.749
  0
ARC
  5
328
100
AcDbEntity
  8
PolarPattern002
  6
ByLayer
 62
  256
370
   -1
100
AcDbCircle
 10
0
 20
0
 40
150
100
AcDbArc
 50
-19.2515
 51
-18.8526
  0
LINE
  5
329
100
AcDbEntity
  8
PolarPattern002
  6
ByLayer
 62
  256
370
   -1
100
AcDbLine
 10
-118.7380000000001
 20
-39.98250000000002
 11
-141.612
 21
-49.45729999999998
  0
LINE
  5
32A
100
AcDbEntity
  8
PolarPattern002
  6
ByLayer
 62
  256
370
   -1
100
AcDbLine
 10
118.7380000000001
 20
-39.98250000000002
 11
141.6120000000001
 21
-49.45729999999998
  0
ARC
  5
32B
100
AcDbEntity
  8
PolarPattern002
  6
ByLayer
 62
  256
370
   -1
100
AcDbCircle
 10
-115.485
 20
-47.83539999999999
 40
8.5
100
AcDbArc
 50
-67.5
 51
112.5
  0
ARC
  5
32C
100
AcDbEntity
  8
PolarPattern002
  6
ByLayer
 62
  256
370
   -1
100
AcDbCircle
 10
115.4849999999999
 20
-47.83539999999999
 40
8.5
100
AcDbArc
 50
67.5
 51
-112.5
  0
LINE
  5
32D
100
AcDbEntity
  8
PolarPattern002
  6
ByLayer
 62
  256
370
   -1
100
AcDbLine
 10
-112.232
 20
-55.6884
 11
-135.106
 21
-65.16329999999999
  0
LINE
  5
32E
100
AcDbEntity
  8
PolarPattern002
  6
ByLayer
 62
  256
370
   -1
100
AcDbLine
 10
112.232
 20
-55.6884
 11
135.106
 21
-65.16329999999999
  0
ARC
  5
32F
100
AcDbEntity
  8
PolarPattern002
  6
ByLayer
 62
  256
370
   -1
100
AcDbCircle
 10
0
 20
0
 40
150
100
AcDbArc
 50
-154.251
 51
-153.853
  0
ARC
  5
330
100
AcDbEntity
  8
PolarPattern002
  6
ByLayer
 62
  256
370
   -1
100
AcDbCircle
 10
0
 20
0
 40
150
100
AcDbArc
 50
-26.1486
 51
-25.7485
  0
ARC
  5
331
100
AcDbEntity
  8
PolarPattern002
  6
ByLayer
 62
  256
370
   -1
100
AcDbCircle
 10
-152.742
 20
-102.057
 40
40.25
100
AcDbArc
 50
4.21086
 51
63.2879
  0
ARC
  5
332
100
AcDbEntity
  8
PolarPattern002
  6
ByLayer
 62
  256
370
   -1
100
AcDbCircle
 10
152.74
 20
-102.06
 40
40.25
100
AcDbArc
 50
116.711
 51
175.788
  0
ARC
  5
333
100
AcDbEntity
  8
PolarPattern002
  6
ByLayer
 62
  256
370
   -1
100
AcDbCircle
 10
0
 20
0
 40
150
100
AcDbArc
 50
-138.649
 51
-138.249
  0
ARC
  5
334
100
AcDbEntity
  8
PolarPattern002
  6
ByLayer
 62
  256
370
   -1
100
AcDbCircle
 10
0
 20
0
 40
150
100
AcDbArc
 50
-41.7515
 51
-41.3526
  0
LINE
  5
335
100
AcDbEntity
  8
PolarPattern002
  6
ByLayer
 62
  256
370
   -1
100
AcDbLine
 10
-94.39879999999994
 20
-82.37790000000001
 11
-111.9059999999999
 21
-99.8852
  0
LINE
  5
336
100
AcDbEntity
  8
PolarPattern002
  6
ByLayer
 62
  256
370
   -1
100
AcDbLine
 10
94.39879999999994
 20
-82.37790000000001
 11
111.9059999999999
 21
-99.8852
  0
ARC
  5
337
100
AcDbEntity
  8
PolarPattern002
  6
ByLayer
 62
  256
370
   -1
100
AcDbCircle
 10
-88.38829999999996
 20
-88.38830000000002
 40
8.5
100
AcDbArc
 50
-45
 51
135
  0
ARC
  5
338
100
AcDbEntity
  8
PolarPattern002
  6
ByLayer
 62
  256
370
   -1
100
AcDbCircle
 10
88.38830000000007
 20
-88.38830000000002
 40
8.5
100
AcDbArc
 50
45
 51
-135
  0
LINE
  5
339
100
AcDbEntity
  8
PolarPattern002
  6
ByLayer
 62
  256
370
   -1
100
AcDbLine
 10
-82.37789999999995
 20
-94.39879999999999
 11
-99.88519999999994
 21
-111.906
  0
LINE
  5
33A
100
AcDbEntity
  8
PolarPattern002
  6
ByLayer
 62
  256
370
   -1
100
AcDbLine
 10
82.37789999999995
 20
-94.39879999999999
 11
99.88519999999994
 21
-111.906
  0
ARC
  5
33B
100
AcDbEntity
  8
PolarPattern002
  6
ByLayer
 62
  256
370
   -1
100
AcDbCircle
 10
0
 20
0
 40
150
100
AcDbArc
 50
-131.751
 51
-131.353
  0
ARC
  5
33C
100
AcDbEntity
  8
PolarPattern002
  6
ByLayer
 62
  256
370
   -1
100
AcDbCircle
 10
0
 20
0
 40
150
100
AcDbArc
 50
-48.6486
 51
-48.2485
  0
ARC
  5
33D
100
AcDbEntity
  8
PolarPattern002
  6
ByLayer
 62
  256
370
   -1
100
AcDbCircle
 10
-102.0599999999999
 20
-152.74
 40
40.25
100
AcDbArc
 50
26.7109
 51
85.78789999999999
  0
ARC
  5
33E
100
AcDbEntity
  8
PolarPattern002
  6
ByLayer
 62
  256
370
   -1
100
AcDbCircle
 10
102.057
 20
-152.742
 40
40.25
100
AcDbArc
 50
94.2109
 51
153.288
  0
ARC
  5
33F
100
AcDbEntity
  8
PolarPattern002
  6
ByLayer
 62
  256
370
   -1
100
AcDbCircle
 10
0
 20
0
 40
150
100
AcDbArc
 50
-116.149
 51
-115.749
  0
ARC
  5
340
100
AcDbEntity
  8
PolarPattern002
  6
ByLayer
 62
  256
370
   -1
100
AcDbCircle
 10
0
 20
0
 40
150
100
AcDbArc
 50
-64.25149999999999
 51
-63.8526
  0
LINE
  5
341
100
AcDbEntity
  8
PolarPattern002
  6
ByLayer
 62
  256
370
   -1
100
AcDbLine
 10
-55.6884
 20
-112.232
 11
-65.16330000000005
 21
-135.106
  0
LINE
  5
342
100
AcDbEntity
  8
PolarPattern002
  6
ByLayer
 62
  256
370
   -1
100
AcDbLine
 10
55.6884
 20
-112.232
 11
65.16329999999994
 21
-135.106
  0
ARC
  5
343
100
AcDbEntity
  8
PolarPattern002
  6
ByLayer
 62
  256
370
   -1
100
AcDbCircle
 10
-47.83540000000005
 20
-115.485
 40
8.5
100
AcDbArc
 50
-22.5
 51
157.5
  0
ARC
  5
344
100
AcDbEntity
  8
PolarPattern002
  6
ByLayer
 62
  256
370
   -1
100
AcDbCircle
 10
47.83540000000005
 20
-115.485
 40
8.5
100
AcDbArc
 50
22.5
 51
-157.5
  0
LINE
  5
345
100
AcDbEntity
  8
PolarPattern002
  6
ByLayer
 62
  256
370
   -1
100
AcDbLine
 10
-39.98249999999996
 20
-118.738
 11
-49.45730000000003
 21
-141.612
  0
LINE
  5
346
100
AcDbEntity
  8
PolarPattern002
  6
ByLayer
 62
  256
370
   -1
100
AcDbLine
 10
39.98249999999996
 20
-118.738
 11
49.45730000000003
 21
-141.612
  0
ARC
  5
347
100
AcDbEntity
  8
PolarPattern002
  6
ByLayer
 62
  256
370
   -1
100
AcDbCircle
 10
0
 20
0
 40
150
100
AcDbArc
 50
-109.251
 51
-108.853
  0
ARC
  5
348
100
AcDbEntity
  8
PolarPattern002
  6
ByLayer
 62
  256
370
   -1
100
AcDbCircle
 10
0
 20
0
 40
150
100
AcDbArc
 50
-71.1486
 51
-70.74850000000001
  0
ARC
  5
349
100
AcDbEntity
  8
PolarPattern002
  6
ByLayer
 62
  256
370
   -1
100
AcDbCircle
 10
-35.84000000000003
 20
-180.17
 40
40.25
100
AcDbArc
 50
49.2109
 51
108.288
  0
ARC
  5
34A
100
AcDbEntity
  8
PolarPattern002
  6
ByLayer
 62
  256
370
   -1
100
AcDbCircle
 10
35.83619999999996
 20
-180.171
 40
40.25
100
AcDbArc
 50
71.7109
 51
130.788
  0
ARC
  5
34B
100
AcDbEntity
  8
PolarPattern002
  6
ByLayer
 62
  256
370
   -1
100
AcDbCircle
 10
0
 20
0
 40
150
100
AcDbArc
 50
-93.6486
 51
-93.24850000000001
  0
ARC
  5
34C
100
AcDbEntity
  8
PolarPattern002
  6
ByLayer
 62
  256
370
   -1
100
AcDbCircle
 10
0
 20
0
 40
150
100
AcDbArc
 50
-86.75149999999999
 51
-86.3526
  0
LINE
  5
34D
100
AcDbEntity
  8
PolarPattern002
  6
ByLayer
 62
  256
370
   -1
100
AcDbLine
 10
-8.5
 20
-125
 11
-8.5
 21
-149.759
  0
LINE
  5
34E
100
AcDbEntity
  8
PolarPattern002
  6
ByLayer
 62
  256
370
   -1
100
AcDbLine
 10
8.5
 20
-125
 11
8.5
 21
-149.759
  0
ARC
  5
34F
100
AcDbEntity
  8
PolarPattern002
  6
ByLayer
 62
  256
370
   -1
100
AcDbCircle
 10
0
 20
-125
 40
8.5
100
AcDbArc
 50
9.57908e-14
 51
-180
  0
CIRCLE
  5
350
100
AcDbEntity
  8
PolarPattern002
  6
ByLayer
 62
  256
370
   -1
100
AcDbCircle
 10
-56.56849999999997
 20
-56.56849999999997
 40
5.05
  0
CIRCLE
  5
351
100
AcDbEntity
  8
PolarPattern002
  6
ByLayer
 62
  256
370
   -1
100
AcDbCircle
 10
0
 20
-80
 40
5.05
  0
CIRCLE
  5
352
100
AcDbEntity
  8
PolarPattern002
  6
ByLayer
 62
  256
370
   -1
100
AcDbCircle
 10
56.56849999999997
 20
-56.56849999999997
 40
5.05
  0
CIRCLE
  5
353
100
AcDbEntity
  8
PolarPattern002
  6
ByLayer
 62
  256
370
   -1
100
AcDbCircle
 10
80
 20
0
 40
5.05
  0
CIRCLE
  5
354
100
AcDbEntity
  8
PolarPattern002
  6
ByLayer
 62
  256
370
   -1
100
AcDbCircle
 10
-80
 20
0
 40
5.05
  0
CIRCLE
  5
355
100
AcDbEntity
  8
PolarPattern002
  6
ByLayer
 62
  256
370
   -1
100
AcDbCircle
 10
-56.56849999999997
 20
56.56849999999997
 40
5.05
  0
CIRCLE
  5
356
100
AcDbEntity
  8
PolarPattern002
  6
ByLayer
 62
  256
370
   -1
100
AcDbCircle
 10
0
 20
0
 40
60
  0
CIRCLE
  5
357
100
AcDbEntity
  8
PolarPattern002
  6
ByLayer
 62
  256
370
   -1
100
AcDbCircle
 10
0
 20
80
 40
5.05
  0
CIRCLE
  5
358
100
AcDbEntity
  8
PolarPattern002
  6
ByLayer
 62
  256
370
   -1
100
AcDbCircle
 10
56.56849999999997
 20
56.56849999999997
 40
5.05
  0
ARC
  5
359
100
AcDbEntity
  8
PolarPattern002
  6
ByLayer
 62
  256
370
   -1
100
AcDbCircle
 10
180.171
 20
35.83620000000002
 40
40.25
100
AcDbArc
 50
161.711
 51
-139.212
  0
LINE
  5
35A
100
AcDbEntity
  8
PolarPattern002
  6
ByLayer
 62
  256
370
   -1
100
AcDbLine
 10
149.6959999999999
 20
9.54246999999998
 11
149.6959999999999
 21
9.54246999999998
  0
ARC
  5
35B
100
AcDbEntity
  8
PolarPattern002
  6
ByLayer
 62
  256
370
   -1
100
AcDbCircle
 10
180.171
 20
35.83620000000002
 40
40.25
100
AcDbArc
 50
161.711
 51
-139.212
  0
LINE
  5
35C
100
AcDbEntity
  8
PolarPattern002
  6
ByLayer
 62
  256
370
   -1
100
AcDbLine
 10
141.954
 20
48.46719999999999
 11
141.954
 21
48.46719999999999
  0
ARC
  5
35D
100
AcDbEntity
  8
PolarPattern002
  6
ByLayer
 62
  256
370
   -1
100
AcDbCircle
 10
0
 20
125
 40
8.5
100
AcDbArc
 50
-180
 51
8.23801e-12
  0
LINE
  5
35E
100
AcDbEntity
  8
PolarPattern002
  6
ByLayer
 62
  256
370
   -1
100
AcDbLine
 10
-8.5
 20
125
 11
-8.5
 21
149.759
  0
LINE
  5
35F
100
AcDbEntity
  8
PolarPattern002
  6
ByLayer
 62
  256
370
   -1
100
AcDbLine
 10
8.5
 20
125
 11
8.5
 21
149.759
  0
ARC
  5
360
100
AcDbEntity
  8
PolarPattern002
  6
ByLayer
 62
  256
370
   -1
100
AcDbCircle
 10
0
 20
0
 40
150
100
AcDbArc
 50
93.24850000000001
 51
93.6474
  0
ARC
  5
361
100
AcDbEntity
  8
PolarPattern002
  6
ByLayer
 62
  256
370
   -1
100
AcDbCircle
 10
0
 20
0
 40
150
100
AcDbArc
 50
86.3514
 51
86.75149999999999
  0
ARC
  5
362
100
AcDbEntity
  8
PolarPattern002
  6
ByLayer
 62
  256
370
   -1
100
AcDbCircle
 10
-35.83619999999996
 20
180.171
 40
40.25
100
AcDbArc
 50
-108.289
 51
-49.2121
  0
ARC
  5
363
100
AcDbEntity
  8
PolarPattern002
  6
ByLayer
 62
  256
370
   -1
100
AcDbCircle
 10
35.84000000000003
 20
180.17
 40
40.25
100
AcDbArc
 50
-130.789
 51
-71.71210000000001
  0
ARC
  5
364
100
AcDbEntity
  8
PolarPattern002
  6
ByLayer
 62
  256
370
   -1
100
AcDbCircle
 10
0
 20
0
 40
150
100
AcDbArc
 50
108.851
 51
109.251
  0
ARC
  5
365
100
AcDbEntity
  8
PolarPattern002
  6
ByLayer
 62
  256
370
   -1
100
AcDbCircle
 10
0
 20
0
 40
150
100
AcDbArc
 50
70.74850000000001
 51
71.1474
  0
LINE
  5
366
100
AcDbEntity
  8
PolarPattern002
  6
ByLayer
 62
  256
370
   -1
100
AcDbLine
 10
-39.98249999999996
 20
118.738
 11
-49.45730000000003
 21
141.612
  0
LINE
  5
367
100
AcDbEntity
  8
PolarPattern002
  6
ByLayer
 62
  256
370
   -1
100
AcDbLine
 10
39.98249999999996
 20
118.738
 11
49.45730000000003
 21
141.612
  0
ARC
  5
368
100
AcDbEntity
  8
PolarPattern002
  6
ByLayer
 62
  256
370
   -1
100
AcDbCircle
 10
-47.83540000000005
 20
115.485
 40
8.5
100
AcDbArc
 50
-157.5
 51
22.5
  0
ARC
  5
369
100
AcDbEntity
  8
PolarPattern002
  6
ByLayer
 62
  256
370
   -1
100
AcDbCircle
 10
47.83540000000005
 20
115.485
 40
8.5
100
AcDbArc
 50
157.5
 51
-22.5
  0
LINE
  5
36A
100
AcDbEntity
  8
PolarPattern002
  6
ByLayer
 62
  256
370
   -1
100
AcDbLine
 10
-55.6884
 20
112.232
 11
-65.16330000000005
 21
135.106
  0
LINE
  5
36B
100
AcDbEntity
  8
PolarPattern002
  6
ByLayer
 62
  256
370
   -1
100
AcDbLine
 10
55.6884
 20
112.232
 11
65.16329999999994
 21
135.106
  0
ARC
  5
36C
100
AcDbEntity
  8
PolarPattern002
  6
ByLayer
 62
  256
370
   -1
100
AcDbCircle
 10
0
 20
0
 40
150
100
AcDbArc
 50
115.749
 51
116.147
  0
ARC
  5
36D
100
AcDbEntity
  8
PolarPattern002
  6
ByLayer
 62
  256
370
   -1
100
AcDbCircle
 10
0
 20
0
 40
150
100
AcDbArc
 50
63.8514
 51
64.25149999999999
  0
ARC
  5
36E
100
AcDbEntity
  8
PolarPattern002
  6
ByLayer
 62
  256
370
   -1
100
AcDbCircle
 10
-102.057
 20
152.742
 40
40.25
100
AcDbArc
 50
-85.7891
 51
-26.7121
  0
ARC
  5
36F
100
AcDbEntity
  8
PolarPattern002
  6
ByLayer
 62
  256
370
   -1
100
AcDbCircle
 10
102.0599999999999
 20
152.74
 40
40.25
100
AcDbArc
 50
-153.289
 51
-94.21210000000001
  0
ARC
  5
370
100
AcDbEntity
  8
PolarPattern002
  6
ByLayer
 62
  256
370
   -1
100
AcDbCircle
 10
0
 20
0
 40
150
100
AcDbArc
 50
131.351
 51
131.751
  0
ARC
  5
371
100
AcDbEntity
  8
PolarPattern002
  6
ByLayer
 62
  256
370
   -1
100
AcDbCircle
 10
0
 20
0
 40
150
100
AcDbArc
 50
48.2485
 51
48.6474
  0
LINE
  5
372
100
AcDbEntity
  8
PolarPattern002
  6
ByLayer
 62
  256
370
   -1
100
AcDbLine
 10
-82.37789999999995
 20
94.39879999999999
 11
-99.88519999999994
 21
111.906
  0
LINE
  5
373
100
AcDbEntity
  8
PolarPattern002
  6
ByLayer
 62
  256
370
   -1
100
AcDbLine
 10
82.37789999999995
 20
94.39879999999999
 11
99.88519999999994
 21
111.906
  0
ARC
  5
374
100
AcDbEntity
  8
PolarPattern002
  6
ByLayer
 62
  256
370
   -1
100
AcDbCircle
 10
-88.38829999999996
 20
88.38830000000002
 40
8.5
100
AcDbArc
 50
-135
 51
45
  0
ARC
  5
375
100
AcDbEntity
  8
PolarPattern002
  6
ByLayer
 62
  256
370
   -1
100
AcDbCircle
 10
88.38830000000007
 20
88.38830000000002
 40
8.5
100
AcDbArc
 50
135
 51
-45
  0
LINE
  5
376
100
AcDbEntity
  8
PolarPattern002
  6
ByLayer
 62
  256
370
   -1
100
AcDbLine
 10
-94.39879999999994
 20
82.37790000000001
 11
-111.9059999999999
 21
99.8852
  0
LINE
  5
377
100
AcDbEntity
  8
PolarPattern002
  6
ByLayer
 62
  256
370
   -1
100
AcDbLine
 10
94.39879999999994
 20
82.37790000000001
 11
111.9059999999999
 21
99.8852
  0
ARC
  5
378
100
AcDbEntity
  8
PolarPattern002
  6
ByLayer
 62
  256
370
   -1
100
AcDbCircle
 10
0
 20
0
 40
150
100
AcDbArc
 50
138.249
 51
138.647
  0
ARC
  5
379
100
AcDbEntity
  8
PolarPattern002
  6
ByLayer
 62
  256
370
   -1
100
AcDbCircle
 10
0
 20
0
 40
150
100
AcDbArc
 50
41.3514
 51
41.7515
  0
ARC
  5
37A
100
AcDbEntity
  8
PolarPattern002
  6
ByLayer
 62
  256
370
   -1
100
AcDbCircle
 10
-152.74
 20
102.06
 40
40.25
100
AcDbArc
 50
-63.2891
 51
-4.21206
  0
ARC
  5
37B
100
AcDbEntity
  8
PolarPattern002
  6
ByLayer
 62
  256
370
   -1
100
AcDbCircle
 10
152.742
 20
102.057
 40
40.25
100
AcDbArc
 50
-175.789
 51
-116.712
  0
ARC
  5
37C
100
AcDbEntity
  8
PolarPattern002
  6
ByLayer
 62
  256
370
   -1
100
AcDbCircle
 10
0
 20
0
 40
150
100
AcDbArc
 50
153.851
 51
154.251
  0
ARC
  5
37D
100
AcDbEntity
  8
PolarPattern002
  6
ByLayer
 62
  256
370
   -1
100
AcDbCircle
 10
0
 20
0
 40
150
100
AcDbArc
 50
25.7485
 51
26.1474
  0
LINE
  5
37E
100
AcDbEntity
  8
PolarPattern002
  6
ByLayer
 62
  256
370
   -1
100
AcDbLine
 10
-112.232
 20
55.6884
 11
-135.106
 21
65.16329999999999
  0
LINE
  5
37F
100
AcDbEntity
  8
PolarPattern002
  6
ByLayer
 62
  256
370
   -1
100
AcDbLine
 10
112.232
 20
55.6884
 11
135.106
 21
65.16329999999999
  0
ARC
  5
380
100
AcDbEntity
  8
PolarPattern002
  6
ByLayer
 62
  256
370
   -1
100
AcDbCircle
 10
-115.485
 20
47.83539999999999
 40
8.5
100
AcDbArc
 50
-112.5
 51
67.5
  0
ARC
  5
381
100
AcDbEntity
  8
PolarPattern002
  6
ByLayer
 62
  256
370
   -1
100
AcDbCircle
 10
115.4849999999999
 20
47.83539999999999
 40
8.5
100
AcDbArc
 50
112.5
 51
-67.5
  0
LINE
  5
382
100
AcDbEntity
  8
PolarPattern002
  6
ByLayer
 62
  256
370
   -1
100
AcDbLine
 10
-118.7380000000001
 20
39.98250000000002
 11
-141.612
 21
49.45729999999998
  0
LINE
  5
383
100
AcDbEntity
  8
PolarPattern002
  6
ByLayer
 62
  256
370
   -1
100
AcDbLine
 10
118.7380000000001
 20
39.98250000000002
 11
141.6120000000001
 21
49.45729999999998
  0
ARC
  5
384
100
AcDbEntity
  8
PolarPattern002
  6
ByLayer
 62
  256
370
   -1
100
AcDbCircle
 10
0
 20
0
 40
150
100
AcDbArc
 50
160.749
 51
161.147
  0
ARC
  5
385
100
AcDbEntity
  8
PolarPattern002
  6
ByLayer
 62
  256
370
   -1
100
AcDbCircle
 10
0
 20
0
 40
150
100
AcDbArc
 50
18.8514
 51
19.2515
  0
ARC
  5
386
100
AcDbEntity
  8
PolarPattern002
  6
ByLayer
 62
  256
370
   -1
100
AcDbCircle
 10
-180.17
 20
35.84000000000003
 40
40.25
100
AcDbArc
 50
-40.7891
 51
18.2879
  0
ARC
  5
387
100
AcDbEntity
  8
PolarPattern002
  6
ByLayer
 62
  256
370
   -1
100
AcDbCircle
 10
180.171
 20
35.83620000000002
 40
40.25
100
AcDbArc
 50
161.711
 51
-139.212
  0
ARC
  5
388
100
AcDbEntity
  8
PolarPattern002
  6
ByLayer
 62
  256
370
   -1
100
AcDbCircle
 10
0
 20
0
 40
150
100
AcDbArc
 50
176.351
 51
176.751
  0
ARC
  5
389
100
AcDbEntity
  8
PolarPattern002
  6
ByLayer
 62
  256
370
   -1
100
AcDbCircle
 10
0
 20
0
 40
150
100
AcDbArc
 50
3.2485
 51
3.64742
  0
LINE
  5
38A
100
AcDbEntity
  8
PolarPattern002
  6
ByLayer
 62
  256
370
   -1
100
AcDbLine
 10
-125
 20
8.5
 11
-149.759
 21
8.5
  0
LINE
  5
38B
100
AcDbEntity
  8
PolarPattern002
  6
ByLayer
 62
  256
370
   -1
100
AcDbLine
 10
125
 20
8.5
 11
149.759
 21
8.5
  0
ARC
  5
38C
100
AcDbEntity
  8
PolarPattern002
  6
ByLayer
 62
  256
370
   -1
100
AcDbCircle
 10
-125
 20
0
 40
8.5
100
AcDbArc
 50
-90
 51
90
  0
ARC
  5
38D
100
AcDbEntity
  8
PolarPattern002
  6
ByLayer
 62
  256
370
   -1
100
AcDbCircle
 10
125
 20
0
 40
8.5
100
AcDbArc
 50
90
 51
-90
  0
LINE
  5
38E
100
AcDbEntity
  8
PolarPattern002
  6
ByLayer
 62
  256
370
   -1
100
AcDbLine
 10
-125
 20
-8.5
 11
-149.759
 21
-8.5
  0
LINE
  5
38F
100
AcDbEntity
  8
PolarPattern002
  6
ByLayer
 62
  256
370
   -1
100
AcDbLine
 10
125
 20
-8.5
 11
149.759
 21
-8.5
  0
ARC
  5
390
100
AcDbEntity
  8
PolarPattern002
  6
ByLayer
 62
  256
370
   -1
100
AcDbCircle
 10
0
 20
0
 40
150
100
AcDbArc
 50
-176.751
 51
-176.353
  0
ARC
  5
391
100
AcDbEntity
  8
PolarPattern002
  6
ByLayer
 62
  256
370
   -1
100
AcDbCircle
 10
0
 20
0
 40
150
100
AcDbArc
 50
-3.64862
 51
-3.2485
  0
ARC
  5
392
100
AcDbEntity
  8
PolarPattern002
  6
ByLayer
 62
  256
370
   -1
100
AcDbCircle
 10
-180.171
 20
-35.83620000000002
 40
40.25
100
AcDbArc
 50
-18.2891
 51
40.7879
  0
ARC
  5
393
100
AcDbEntity
  8
PolarPattern002
  6
ByLayer
 62
  256
370
   -1
100
AcDbCircle
 10
180.1700000000001
 20
-35.84000000000003
 40
40.25
100
AcDbArc
 50
139.211
 51
-161.712
  0
ARC
  5
394
100
AcDbEntity
  8
PolarPattern002
  6
ByLayer
 62
  256
370
   -1
100
AcDbCircle
 10
0
 20
0
 40
150
100
AcDbArc
 50
-161.149
 51
-160.749
  0
ARC
  5
395
100
AcDbEntity
  8
PolarPattern002
  6
ByLayer
 62
  256
370
   -1
100
AcDbCircle
 10
0
 20
0
 40
150
100
AcDbArc
 50
-19.2515
 51
-18.8526
  0
LINE
  5
396
100
AcDbEntity
  8
PolarPattern002
  6
ByLayer
 62
  256
370
   -1
100
AcDbLine
 10
-118.7380000000001
 20
-39.98250000000002
 11
-141.612
 21
-49.45729999999998
  0
LINE
  5
397
100
AcDbEntity
  8
PolarPattern002
  6
ByLayer
 62
  256
370
   -1
100
AcDbLine
 10
118.7380000000001
 20
-39.98250000000002
 11
141.6120000000001
 21
-49.45729999999998
  0
ARC
  5
398
100
AcDbEntity
  8
PolarPattern002
  6
ByLayer
 62
  256
370
   -1
100
AcDbCircle
 10
-115.485
 20
-47.83539999999999
 40
8.5
100
AcDbArc
 50
-67.5
 51
112.5
  0
ARC
  5
399
100
AcDbEntity
  8
PolarPattern002
  6
ByLayer
 62
  256
370
   -1
100
AcDbCircle
 10
115.4849999999999
 20
-47.83539999999999
 40
8.5
100
AcDbArc
 50
67.5
 51
-112.5
  0
LINE
  5
39A
100
AcDbEntity
  8
PolarPattern002
  6
ByLayer
 62
  256
370
   -1
100
AcDbLine
 10
-112.232
 20
-55.6884
 11
-135.106
 21
-65.16329999999999
  0
LINE
  5
39B
100
AcDbEntity
  8
PolarPattern002
  6
ByLayer
 62
  256
370
   -1
100
AcDbLine
 10
112.232
 20
-55.6884
 11
135.106
 21
-65.16329999999999
  0
ARC
  5
39C
100
AcDbEntity
  8
PolarPattern002
  6
ByLayer
 62
  256
370
   -1
100
AcDbCircle
 10
0
 20
0
 40
150
100
AcDbArc
 50
-154.251
 51
-153.853
  0
ARC
  5
39D
100
AcDbEntity
  8
PolarPattern002
  6
ByLayer
 62
  256
370
   -1
100
AcDbCircle
 10
0
 20
0
 40
150
100
AcDbArc
 50
-26.1486
 51
-25.7485
  0
ARC
  5
39E
100
AcDbEntity
  8
PolarPattern002
  6
ByLayer
 62
  256
370
   -1
100
AcDbCircle
 10
-152.742
 20
-102.057
 40
40.25
100
AcDbArc
 50
4.21086
 51
63.2879
  0
ARC
  5
39F
100
AcDbEntity
  8
PolarPattern002
  6
ByLayer
 62
  256
370
   -1
100
AcDbCircle
 10
152.74
 20
-102.06
 40
40.25
100
AcDbArc
 50
116.711
 51
175.788
  0
ARC
  5
3A0
100
AcDbEntity
  8
PolarPattern002
  6
ByLayer
 62
  256
370
   -1
100
AcDbCircle
 10
0
 20
0
 40
150
100
AcDbArc
 50
-138.649
 51
-138.249
  0
ARC
  5
3A1
100
AcDbEntity
  8
PolarPattern002
  6
ByLayer
 62
  256
370
   -1
100
AcDbCircle
 10
0
 20
0
 40
150
100
AcDbArc
 50
-41.7515
 51
-41.3526
  0
LINE
  5
3A2
100
AcDbEntity
  8
PolarPattern002
  6
ByLayer
 62
  256
370
   -1
100
AcDbLine
 10
-94.39879999999994
 20
-82.37790000000001
 11
-111.9059999999999
 21
-99.8852
  0
LINE
  5
3A3
100
AcDbEntity
  8
PolarPattern002
  6
ByLayer
 62
  256
370
   -1
100
AcDbLine
 10
94.39879999999994
 20
-82.37790000000001
 11
111.9059999999999
 21
-99.8852
  0
ARC
  5
3A4
100
AcDbEntity
  8
PolarPattern002
  6
ByLayer
 62
  256
370
   -1
100
AcDbCircle
 10
-88.38829999999996
 20
-88.38830000000002
 40
8.5
100
AcDbArc
 50
-45
 51
135
  0
ARC
  5
3A5
100
AcDbEntity
  8
PolarPattern002
  6
ByLayer
 62
  256
370
   -1
100
AcDbCircle
 10
88.38830000000007
 20
-88.38830000000002
 40
8.5
100
AcDbArc
 50
45
 51
-135
  0
LINE
  5
3A6
100
AcDbEntity
  8
PolarPattern002
  6
ByLayer
 62
  256
370
   -1
100
AcDbLine
 10
-82.37789999999995
 20
-94.39879999999999
 11
-99.88519999999994
 21
-111.906
  0
LINE
  5
3A7
100
AcDbEntity
  8
PolarPattern002
  6
ByLayer
 62
  256
370
   -1
100
AcDbLine
 10
82.37789999999995
 20
-94.39879999999999
 11
99.88519999999994
 21
-111.906
  0
ARC
  5
3A8
100
AcDbEntity
  8
PolarPattern002
  6
ByLayer
 62
  256
370
   -1
100
AcDbCircle
 10
0
 20
0
 40
150
100
AcDbArc
 50
-131.751
 51
-131.353
  0
ARC
  5
3A9
100
AcDbEntity
  8
PolarPattern002
  6
ByLayer
 62
  256
370
   -1
100
AcDbCircle
 10
0
 20
0
 40
150
100
AcDbArc
 50
-48.6486
 51
-48.2485
  0
ARC
  5
3AA
100
AcDbEntity
  8
PolarPattern002
  6
ByLayer
 62
  256
370
   -1
100
AcDbCircle
 10
-102.0599999999999
 20
-152.74
 40
40.25
100
AcDbArc
 50
26.7109
 51
85.78789999999999
  0
ARC
  5
3AB
100
AcDbEntity
  8
PolarPattern002
  6
ByLayer
 62
  256
370
   -1
100
AcDbCircle
 10
102.057
 20
-152.742
 40
40.25
100
AcDbArc
 50
94.2109
 51
153.288
  0
ARC
  5
3AC
100
AcDbEntity
  8
PolarPattern002
  6
ByLayer
 62
  256
370
   -1
100
AcDbCircle
 10
0
 20
0
 40
150
100
AcDbArc
 50
-116.149
 51
-115.749
  0
ARC
  5
3AD
100
AcDbEntity
  8
PolarPattern002
  6
ByLayer
 62
  256
370
   -1
100
AcDbCircle
 10
0
 20
0
 40
150
100
AcDbArc
 50
-64.25149999999999
 51
-63.8526
  0
LINE
  5
3AE
100
AcDbEntity
  8
PolarPattern002
  6
ByLayer
 62
  256
370
   -1
100
AcDbLine
 10
-55.6884
 20
-112.232
 11
-65.16330000000005
 21
-135.106
  0
LINE
  5
3AF
100
AcDbEntity
  8
PolarPattern002
  6
ByLayer
 62
  256
370
   -1
100
AcDbLine
 10
55.6884
 20
-112.232
 11
65.16329999999994
 21
-135.106
  0
ARC
  5
3B0
100
AcDbEntity
  8
PolarPattern002
  6
ByLayer
 62
  256
370
   -1
100
AcDbCircle
 10
-47.83540000000005
 20
-115.485
 40
8.5
100
AcDbArc
 50
-22.5
 51
157.5
  0
ARC
  5
3B1
100
AcDbEntity
  8
PolarPattern002
  6
ByLayer
 62
  256
370
   -1
100
AcDbCircle
 10
47.83540000000005
 20
-115.485
 40
8.5
100
AcDbArc
 50
22.5
 51
-157.5
  0
LINE
  5
3B2
100
AcDbEntity
  8
PolarPattern002
  6
ByLayer
 62
  256
370
   -1
100
AcDbLine
 10
-39.98249999999996
 20
-118.738
 11
-49.45730000000003
 21
-141.612
  0
LINE
  5
3B3
100
AcDbEntity
  8
PolarPattern002
  6
ByLayer
 62
  256
370
   -1
100
AcDbLine
 10
39.98249999999996
 20
-118.738
 11
49.45730000000003
 21
-141.612
  0
ARC
  5
3B4
100
AcDbEntity
  8
PolarPattern002
  6
ByLayer
 62
  256
370
   -1
100
AcDbCircle
 10
0
 20
0
 40
150
100
AcDbArc
 50
-109.251
 51
-108.853
  0
ARC
  5
3B5
100
AcDbEntity
  8
PolarPattern002
  6
ByLayer
 62
  256
370
   -1
100
AcDbCircle
 10
0
 20
0
 40
150
100
AcDbArc
 50
-71.1486
 51
-70.74850000000001
  0
ARC
  5
3B6
100
AcDbEntity
  8
PolarPattern002
  6
ByLayer
 62
  256
370
   -1
100
AcDbCircle
 10
-35.84000000000003
 20
-180.17
 40
40.25
100
AcDbArc
 50
49.2109
 51
108.288
  0
ARC
  5
3B7
100
AcDbEntity
  8
PolarPattern002
  6
ByLayer
 62
  256
370
   -1
100
AcDbCircle
 10
35.83619999999996
 20
-180.171
 40
40.25
100
AcDbArc
 50
71.7109
 51
130.788
  0
ARC
  5
3B8
100
AcDbEntity
  8
PolarPattern002
  6
ByLayer
 62
  256
370
   -1
100
AcDbCircle
 10
0
 20
0
 40
150
100
AcDbArc
 50
-93.6486
 51
-93.24850000000001
  0
ARC
  5
3B9
100
AcDbEntity
  8
PolarPattern002
  6
ByLayer
 62
  256
370
   -1
100
AcDbCircle
 10
0
 20
0
 40
150
100
AcDbArc
 50
-86.75149999999999
 51
-86.3526
  0
LINE
  5
3BA
100
AcDbEntity
  8
PolarPattern002
  6
ByLayer
 62
  256
370
   -1
100
AcDbLine
 10
-8.5
 20
-125
 11
-8.5
 21
-149.759
  0
LINE
  5
3BB
100
AcDbEntity
  8
PolarPattern002
  6
ByLayer
 62
  256
370
   -1
100
AcDbLine
 10
8.5
 20
-125
 11
8.5
 21
-149.759
  0
ARC
  5
3BC
100
AcDbEntity
  8
PolarPattern002
  6
ByLayer
 62
  256
370
   -1
100
AcDbCircle
 10
0
 20
-125
 40
8.5
100
AcDbArc
 50
9.57908e-14
 51
-180
  0
CIRCLE
  5
3BD
100
AcDbEntity
  8
PolarPattern002
  6
ByLayer
 62
  256
370
   -1
100
AcDbCircle
 10
-56.56849999999997
 20
-56.56849999999997
 40
5.05
  0
CIRCLE
  5
3BE
100
AcDbEntity
  8
PolarPattern002
  6
ByLayer
 62
  256
370
   -1
100
AcDbCircle
 10
0
 20
-80
 40
5.05
  0
CIRCLE
  5
3BF
100
AcDbEntity
  8
PolarPattern002
  6
ByLayer
 62
  256
370
   -1
100
AcDbCircle
 10
56.56849999999997
 20
-56.56849999999997
 40
5.05
  0
CIRCLE
  5
3C0
100
AcDbEntity
  8
PolarPattern002
  6
ByLayer
 62
  256
370
   -1
100
AcDbCircle
 10
80
 20
0
 40
5.05
  0
CIRCLE
  5
3C1
100
AcDbEntity
  8
PolarPattern002
  6
ByLayer
 62
  256
370
   -1
100
AcDbCircle
 10
-80
 20
0
 40
5.05
  0
CIRCLE
  5
3C2
100
AcDbEntity
  8
PolarPattern002
  6
ByLayer
 62
  256
370
   -1
100
AcDbCircle
 10
-56.56849999999997
 20
56.56849999999997
 40
5.05
  0
CIRCLE
  5
3C3
100
AcDbEntity
  8
PolarPattern002
  6
ByLayer
 62
  256
370
   -1
100
AcDbCircle
 10
0
 20
0
 40
60
  0
CIRCLE
  5
3C4
100
AcDbEntity
  8
PolarPattern002
  6
ByLayer
 62
  256
370
   -1
100
AcDbCircle
 10
0
 20
80
 40
5.05
  0
CIRCLE
  5
3C5
100
AcDbEntity
  8
PolarPattern002
  6
ByLayer
 62
  256
370
   -1
100
AcDbCircle
 10
56.56849999999997
 20
56.56849999999997
 40
5.05
  0
LINE
  5
3C6
100
AcDbEntity
  8
PolarPattern002
  6
ByLayer
 62
  256
370
   -1
100
AcDbLine
 10
125
 20
8.5
 11
149.759
 21
8.5
  0
LINE
  5
3C7
100
AcDbEntity
  8
PolarPattern002
  6
ByLayer
 62
  256
370
   -1
100
AcDbLine
 10
149.759
 20
8.5
 11
149.759
 21
8.5
  0
LINE
  5
3C8
100
AcDbEntity
  8
PolarPattern002
  6
ByLayer
 62
  256
370
   -1
100
AcDbLine
 10
125
 20
8.5
 11
149.759
 21
8.5
  0
LINE
  5
3C9
100
AcDbEntity
  8
PolarPattern002
  6
ByLayer
 62
  256
370
   -1
100
AcDbLine
 10
125
 20
8.5
 11
125
 21
8.5
  0
ARC
  5
3CA
100
AcDbEntity
  8
PolarPattern002
  6
ByLayer
 62
  256
370
   -1
100
AcDbCircle
 10
0
 20
125
 40
8.5
100
AcDbArc
 50
-180
 51
8.23801e-12
  0
LINE
  5
3CB
100
AcDbEntity
  8
PolarPattern002
  6
ByLayer
 62
  256
370
   -1
100
AcDbLine
 10
8.5
 20
125
 11
8.5
 21
125
  0
ARC
  5
3CC
100
AcDbEntity
  8
PolarPattern002
  6
ByLayer
 62
  256
370
   -1
100
AcDbCircle
 10
0
 20
125
 40
8.5
100
AcDbArc
 50
-180
 51
8.23801e-12
  0
LINE
  5
3CD
100
AcDbEntity
  8
PolarPattern002
  6
ByLayer
 62
  256
370
   -1
100
AcDbLine
 10
-8.5
 20
125
 11
-8.5
 21
125
  0
LINE
  5
3CE
100
AcDbEntity
  8
PolarPattern002
  6
ByLayer
 62
  256
370
   -1
100
AcDbLine
 10
-8.5
 20
125
 11
-8.5
 21
149.759
  0
LINE
  5
3CF
100
AcDbEntity
  8
PolarPattern002
  6
ByLayer
 62
  256
370
   -1
100
AcDbLine
 10
-8.5
 20
149.759
 11
-8.5
 21
149.759
  0
LINE
  5
3D0
100
AcDbEntity
  8
PolarPattern002
  6
ByLayer
 62
  256
370
   -1
100
AcDbLine
 10
-8.5
 20
125
 11
-8.5
 21
149.759
  0
LINE
  5
3D1
100
AcDbEntity
  8
PolarPattern002
  6
ByLayer
 62
  256
370
   -1
100
AcDbLine
 10
-8.5
 20
125
 11
-8.5
 21
125
  0
LINE
  5
3D2
100
AcDbEntity
  8
PolarPattern002
  6
ByLayer
 62
  256
370
   -1
100
AcDbLine
 10
8.5
 20
125
 11
8.5
 21
149.759
  0
LINE
  5
3D3
100
AcDbEntity
  8
PolarPattern002
  6
ByLayer
 62
  256
370
   -1
100
AcDbLine
 10
8.5
 20
149.759
 11
8.5
 21
149.759
  0
LINE
  5
3D4
100
AcDbEntity
  8
PolarPattern002
  6
ByLayer
 62
  256
370
   -1
100
AcDbLine
 10
8.5
 20
125
 11
8.5
 21
149.759
  0
LINE
  5
3D5
100
AcDbEntity
  8
PolarPattern002
  6
ByLayer
 62
  256
370
   -1
100
AcDbLine
 10
8.5
 20
125
 11
8.5
 21
125
  0
ARC
  5
3D6
100
AcDbEntity
  8
PolarPattern002
  6
ByLayer
 62
  256
370
   -1
100
AcDbCircle
 10
0
 20
0
 40
150
100
AcDbArc
 50
93.24850000000001
 51
93.6474
  0
LINE
  5
3D7
100
AcDbEntity
  8
PolarPattern002
  6
ByLayer
 62
  256
370
   -1
100
AcDbLine
 10
-8.5
 20
149.759
 11
-8.5
 21
149.759
  0
ARC
  5
3D8
100
AcDbEntity
  8
PolarPattern002
  6
ByLayer
 62
  256
370
   -1
100
AcDbCircle
 10
0
 20
0
 40
150
100
AcDbArc
 50
93.24850000000001
 51
93.6474
  0
LINE
  5
3D9
100
AcDbEntity
  8
PolarPattern002
  6
ByLayer
 62
  256
370
   -1
100
AcDbLine
 10
-9.54246999999998
 20
149.696
 11
-9.54246999999998
 21
149.696
  0
ARC
  5
3DA
100
AcDbEntity
  8
PolarPattern002
  6
ByLayer
 62
  256
370
   -1
100
AcDbCircle
 10
0
 20
0
 40
150
100
AcDbArc
 50
86.3514
 51
86.75149999999999
  0
LINE
  5
3DB
100
AcDbEntity
  8
PolarPattern002
  6
ByLayer
 62
  256
370
   -1
100
AcDbLine
 10
8.5
 20
149.759
 11
8.5
 21
149.759
  0
ARC
  5
3DC
100
AcDbEntity
  8
PolarPattern002
  6
ByLayer
 62
  256
370
   -1
100
AcDbCircle
 10
0
 20
0
 40
150
100
AcDbArc
 50
86.3514
 51
86.75149999999999
  0
LINE
  5
3DD
100
AcDbEntity
  8
PolarPattern002
  6
ByLayer
 62
  256
370
   -1
100
AcDbLine
 10
9.545600000000036
 20
149.696
 11
9.545600000000036
 21
149.696
  0
ARC
  5
3DE
100
AcDbEntity
  8
PolarPattern002
  6
ByLayer
 62
  256
370
   -1
100
AcDbCircle
 10
-35.83619999999996
 20
180.171
 40
40.25
100
AcDbArc
 50
-108.289
 51
-49.2121
  0
LINE
  5
3DF
100
AcDbEntity
  8
PolarPattern002
  6
ByLayer
 62
  256
370
   -1
100
AcDbLine
 10
-9.54246999999998
 20
149.696
 11
-9.54246999999998
 21
149.696
  0
ARC
  5
3E0
100
AcDbEntity
  8
PolarPattern002
  6
ByLayer
 62
  256
370
   -1
100
AcDbCircle
 10
-35.83619999999996
 20
180.171
 40
40.25
100
AcDbArc
 50
-108.289
 51
-49.2121
  0
LINE
  5
3E1
100
AcDbEntity
  8
PolarPattern002
  6
ByLayer
 62
  256
370
   -1
100
AcDbLine
 10
-48.46720000000005
 20
141.954
 11
-48.46720000000005
 21
141.954
  0
ARC
  5
3E2
100
AcDbEntity
  8
PolarPattern002
  6
ByLayer
 62
  256
370
   -1
100
AcDbCircle
 10
35.84000000000003
 20
180.17
 40
40.25
100
AcDbArc
 50
-130.789
 51
-71.71210000000001
  0
LINE
  5
3E3
100
AcDbEntity
  8
PolarPattern002
  6
ByLayer
 62
  256
370
   -1
100
AcDbLine
 10
48.47019999999998
 20
141.953
 11
48.47019999999998
 21
141.953
  0
ARC
  5
3E4
100
AcDbEntity
  8
PolarPattern002
  6
ByLayer
 62
  256
370
   -1
100
AcDbCircle
 10
35.84000000000003
 20
180.17
 40
40.25
100
AcDbArc
 50
-130.789
 51
-71.71210000000001
  0
LINE
  5
3E5
100
AcDbEntity
  8
PolarPattern002
  6
ByLayer
 62
  256
370
   -1
100
AcDbLine
 10
9.545600000000036
 20
149.696
 11
9.545600000000036
 21
149.696
  0
ARC
  5
3E6
100
AcDbEntity
  8
PolarPattern002
  6
ByLayer
 62
  256
370
   -1
100
AcDbCircle
 10
0
 20
0
 40
150
100
AcDbArc
 50
108.851
 51
109.251
  0
LINE
  5
3E7
100
AcDbEntity
  8
PolarPattern002
  6
ByLayer
 62
  256
370
   -1
100
AcDbLine
 10
-48.46720000000005
 20
141.954
 11
-48.46720000000005
 21
141.954
  0
ARC
  5
3E8
100
AcDbEntity
  8
PolarPattern002
  6
ByLayer
 62
  256
370
   -1
100
AcDbCircle
 10
0
 20
0
 40
150
100
AcDbArc
 50
108.851
 51
109.251
  0
LINE
  5
3E9
100
AcDbEntity
  8
PolarPattern002
  6
ByLayer
 62
  256
370
   -1
100
AcDbLine
 10
-49.45730000000003
 20
141.612
 11
-49.45730000000003
 21
141.612
  0
ARC
  5
3EA
100
AcDbEntity
  8
PolarPattern002
  6
ByLayer
 62
  256
370
   -1
100
AcDbCircle
 10
0
 20
0
 40
150
100
AcDbArc
 50
70.74850000000001
 51
71.1474
  0
LINE
  5
3EB
100
AcDbEntity
  8
PolarPattern002
  6
ByLayer
 62
  256
370
   -1
100
AcDbLine
 10
48.47019999999998
 20
141.953
 11
48.47019999999998
 21
141.953
  0
ARC
  5
3EC
100
AcDbEntity
  8
PolarPattern002
  6
ByLayer
 62
  256
370
   -1
100
AcDbCircle
 10
0
 20
0
 40
150
100
AcDbArc
 50
70.74850000000001
 51
71.1474
  0
LINE
  5
3ED
100
AcDbEntity
  8
PolarPattern002
  6
ByLayer
 62
  256
370
   -1
100
AcDbLine
 10
49.45730000000003
 20
141.612
 11
49.45730000000003
 21
141.612
  0
LINE
  5
3EE
100
AcDbEntity
  8
PolarPattern002
  6
ByLayer
 62
  256
370
   -1
100
AcDbLine
 10
-39.98249999999996
 20
118.738
 11
-49.45730000000003
 21
141.612
  0
LINE
  5
3EF
100
AcDbEntity
  8
PolarPattern002
  6
ByLayer
 62
  256
370
   -1
100
AcDbLine
 10
-49.45730000000003
 20
141.612
 11
-49.45730000000003
 21
141.612
  0
LINE
  5
3F0
100
AcDbEntity
  8
PolarPattern002
  6
ByLayer
 62
  256
370
   -1
100
AcDbLine
 10
-39.98249999999996
 20
118.738
 11
-49.45730000000003
 21
141.612
  0
LINE
  5
3F1
100
AcDbEntity
  8
PolarPattern002
  6
ByLayer
 62
  256
370
   -1
100
AcDbLine
 10
-39.98249999999996
 20
118.738
 11
-39.98249999999996
 21
118.738
  0
LINE
  5
3F2
100
AcDbEntity
  8
PolarPattern002
  6
ByLayer
 62
  256
370
   -1
100
AcDbLine
 10
39.98249999999996
 20
118.738
 11
49.45730000000003
 21
141.612
  0
LINE
  5
3F3
100
AcDbEntity
  8
PolarPattern002
  6
ByLayer
 62
  256
370
   -1
100
AcDbLine
 10
49.45730000000003
 20
141.612
 11
49.45730000000003
 21
141.612
  0
LINE
  5
3F4
100
AcDbEntity
  8
PolarPattern002
  6
ByLayer
 62
  256
370
   -1
100
AcDbLine
 10
39.98249999999996
 20
118.738
 11
49.45730000000003
 21
141.612
  0
LINE
  5
3F5
100
AcDbEntity
  8
PolarPattern002
  6
ByLayer
 62
  256
370
   -1
100
AcDbLine
 10
39.98249999999996
 20
118.738
 11
39.98249999999996
 21
118.738
  0
ARC
  5
3F6
100
AcDbEntity
  8
PolarPattern002
  6
ByLayer
 62
  256
370
   -1
100
AcDbCircle
 10
-47.83540000000005
 20
115.485
 40
8.5
100
AcDbArc
 50
-157.5
 51
22.5
  0
LINE
  5
3F7
100
AcDbEntity
  8
PolarPattern002
  6
ByLayer
 62
  256
370
   -1
100
AcDbLine
 10
-39.98249999999996
 20
118.738
 11
-39.98249999999996
 21
118.738
  0
ARC
  5
3F8
100
AcDbEntity
  8
PolarPattern002
  6
ByLayer
 62
  256
370
   -1
100
AcDbCircle
 10
-47.83540000000005
 20
115.485
 40
8.5
100
AcDbArc
 50
-157.5
 51
22.5
  0
LINE
  5
3F9
100
AcDbEntity
  8
PolarPattern002
  6
ByLayer
 62
  256
370
   -1
100
AcDbLine
 10
-55.6884
 20
112.232
 11
-55.6884
 21
112.232
  0
ARC
  5
3FA
100
AcDbEntity
  8
PolarPattern002
  6
ByLayer
 62
  256
370
   -1
100
AcDbCircle
 10
47.83540000000005
 20
115.485
 40
8.5
100
AcDbArc
 50
157.5
 51
-22.5
  0
LINE
  5
3FB
100
AcDbEntity
  8
PolarPattern002
  6
ByLayer
 62
  256
370
   -1
100
AcDbLine
 10
55.6884
 20
112.232
 11
55.6884
 21
112.232
  0
ARC
  5
3FC
100
AcDbEntity
  8
PolarPattern002
  6
ByLayer
 62
  256
370
   -1
100
AcDbCircle
 10
47.83540000000005
 20
115.485
 40
8.5
100
AcDbArc
 50
157.5
 51
-22.5
  0
LINE
  5
3FD
100
AcDbEntity
  8
PolarPattern002
  6
ByLayer
 62
  256
370
   -1
100
AcDbLine
 10
39.98249999999996
 20
118.738
 11
39.98249999999996
 21
118.738
  0
LINE
  5
3FE
100
AcDbEntity
  8
PolarPattern002
  6
ByLayer
 62
  256
370
   -1
100
AcDbLine
 10
-55.6884
 20
112.232
 11
-65.16330000000005
 21
135.106
  0
LINE
  5
3FF
100
AcDbEntity
  8
PolarPattern002
  6
ByLayer
 62
  256
370
   -1
100
AcDbLine
 10
-65.16330000000005
 20
135.106
 11
-65.16330000000005
 21
135.106
  0
LINE
  5
400
100
AcDbEntity
  8
PolarPattern002
  6
ByLayer
 62
  256
370
   -1
100
AcDbLine
 10
-55.6884
 20
112.232
 11
-65.16330000000005
 21
135.106
  0
LINE
  5
401
100
AcDbEntity
  8
PolarPattern002
  6
ByLayer
 62
  256
370
   -1
100
AcDbLine
 10
-55.6884
 20
112.232
 11
-55.6884
 21
112.232
  0
LINE
  5
402
100
AcDbEntity
  8
PolarPattern002
  6
ByLayer
 62
  256
370
   -1
100
AcDbLine
 10
55.6884
 20
112.232
 11
65.16329999999994
 21
135.106
  0
LINE
  5
403
100
AcDbEntity
  8
PolarPattern002
  6
ByLayer
 62
  256
370
   -1
100
AcDbLine
 10
65.16329999999994
 20
135.106
 11
65.16329999999994
 21
135.106
  0
LINE
  5
404
100
AcDbEntity
  8
PolarPattern002
  6
ByLayer
 62
  256
370
   -1
100
AcDbLine
 10
55.6884
 20
112.232
 11
65.16329999999994
 21
135.106
  0
LINE
  5
405
100
AcDbEntity
  8
PolarPattern002
  6
ByLayer
 62
  256
370
   -1
100
AcDbLine
 10
55.6884
 20
112.232
 11
55.6884
 21
112.232
  0
ARC
  5
406
100
AcDbEntity
  8
PolarPattern002
  6
ByLayer
 62
  256
370
   -1
100
AcDbCircle
 10
0
 20
0
 40
150
100
AcDbArc
 50
115.749
 51
116.147
  0
LINE
  5
407
100
AcDbEntity
  8
PolarPattern002
  6
ByLayer
 62
  256
370
   -1
100
AcDbLine
 10
-65.16330000000005
 20
135.106
 11
-65.16330000000005
 21
135.106
  0
ARC
  5
408
100
AcDbEntity
  8
PolarPattern002
  6
ByLayer
 62
  256
370
   -1
100
AcDbCircle
 10
0
 20
0
 40
150
100
AcDbArc
 50
115.749
 51
116.147
  0
LINE
  5
409
100
AcDbEntity
  8
PolarPattern002
  6
ByLayer
 62
  256
370
   -1
100
AcDbLine
 10
-66.10230000000001
 20
134.649
 11
-66.10230000000001
 21
134.649
  0
ARC
  5
40A
100
AcDbEntity
  8
PolarPattern002
  6
ByLayer
 62
  256
370
   -1
100
AcDbCircle
 10
0
 20
0
 40
150
100
AcDbArc
 50
63.8514
 51
64.25149999999999
  0
LINE
  5
40B
100
AcDbEntity
  8
PolarPattern002
  6
ByLayer
 62
  256
370
   -1
100
AcDbLine
 10
65.16329999999994
 20
135.106
 11
65.16329999999994
 21
135.106
  0
ARC
  5
40C
100
AcDbEntity
  8
PolarPattern002
  6
ByLayer
 62
  256
370
   -1
100
AcDbCircle
 10
0
 20
0
 40
150
100
AcDbArc
 50
63.8514
 51
64.25149999999999
  0
LINE
  5
40D
100
AcDbEntity
  8
PolarPattern002
  6
ByLayer
 62
  256
370
   -1
100
AcDbLine
 10
66.10509999999999
 20
134.648
 11
66.10509999999999
 21
134.648
  0
ARC
  5
40E
100
AcDbEntity
  8
PolarPattern002
  6
ByLayer
 62
  256
370
   -1
100
AcDbCircle
 10
-102.057
 20
152.742
 40
40.25
100
AcDbArc
 50
-85.7891
 51
-26.7121
  0
LINE
  5
40F
100
AcDbEntity
  8
PolarPattern002
  6
ByLayer
 62
  256
370
   -1
100
AcDbLine
 10
-66.10230000000001
 20
134.649
 11
-66.10230000000001
 21
134.649
  0
ARC
  5
410
100
AcDbEntity
  8
PolarPattern002
  6
ByLayer
 62
  256
370
   -1
100
AcDbCircle
 10
-102.057
 20
152.742
 40
40.25
100
AcDbArc
 50
-85.7891
 51
-26.7121
  0
LINE
  5
411
100
AcDbEntity
  8
PolarPattern002
  6
ByLayer
 62
  256
370
   -1
100
AcDbLine
 10
-99.10130000000004
 20
112.601
 11
-99.10130000000004
 21
112.601
  0
ARC
  5
412
100
AcDbEntity
  8
PolarPattern002
  6
ByLayer
 62
  256
370
   -1
100
AcDbCircle
 10
102.0599999999999
 20
152.74
 40
40.25
100
AcDbArc
 50
-153.289
 51
-94.21210000000001
  0
LINE
  5
413
100
AcDbEntity
  8
PolarPattern002
  6
ByLayer
 62
  256
370
   -1
100
AcDbLine
 10
99.10359999999991
 20
112.599
 11
99.10359999999991
 21
112.599
  0
ARC
  5
414
100
AcDbEntity
  8
PolarPattern002
  6
ByLayer
 62
  256
370
   -1
100
AcDbCircle
 10
102.0599999999999
 20
152.74
 40
40.25
100
AcDbArc
 50
-153.289
 51
-94.21210000000001
  0
LINE
  5
415
100
AcDbEntity
  8
PolarPattern002
  6
ByLayer
 62
  256
370
   -1
100
AcDbLine
 10
66.10509999999999
 20
134.648
 11
66.10509999999999
 21
134.648
  0
ARC
  5
416
100
AcDbEntity
  8
PolarPattern002
  6
ByLayer
 62
  256
370
   -1
100
AcDbCircle
 10
0
 20
0
 40
150
100
AcDbArc
 50
131.351
 51
131.751
  0
LINE
  5
417
100
AcDbEntity
  8
PolarPattern002
  6
ByLayer
 62
  256
370
   -1
100
AcDbLine
 10
-99.10130000000004
 20
112.601
 11
-99.10130000000004
 21
112.601
  0
ARC
  5
418
100
AcDbEntity
  8
PolarPattern002
  6
ByLayer
 62
  256
370
   -1
100
AcDbCircle
 10
0
 20
0
 40
150
100
AcDbArc
 50
131.351
 51
131.751
  0
LINE
  5
419
100
AcDbEntity
  8
PolarPattern002
  6
ByLayer
 62
  256
370
   -1
100
AcDbLine
 10
-99.88519999999994
 20
111.906
 11
-99.88519999999994
 21
111.906
  0
ARC
  5
41A
100
AcDbEntity
  8
PolarPattern002
  6
ByLayer
 62
  256
370
   -1
100
AcDbCircle
 10
0
 20
0
 40
150
100
AcDbArc
 50
48.2485
 51
48.6474
  0
LINE
  5
41B
100
AcDbEntity
  8
PolarPattern002
  6
ByLayer
 62
  256
370
   -1
100
AcDbLine
 10
99.10359999999991
 20
112.599
 11
99.10359999999991
 21
112.599
  0
ARC
  5
41C
100
AcDbEntity
  8
PolarPattern002
  6
ByLayer
 62
  256
370
   -1
100
AcDbCircle
 10
0
 20
0
 40
150
100
AcDbArc
 50
48.2485
 51
48.6474
  0
LINE
  5
41D
100
AcDbEntity
  8
PolarPattern002
  6
ByLayer
 62
  256
370
   -1
100
AcDbLine
 10
99.88519999999994
 20
111.906
 11
99.88519999999994
 21
111.906
  0
LINE
  5
41E
100
AcDbEntity
  8
PolarPattern002
  6
ByLayer
 62
  256
370
   -1
100
AcDbLine
 10
-82.37789999999995
 20
94.39879999999999
 11
-99.88519999999994
 21
111.906
  0
LINE
  5
41F
100
AcDbEntity
  8
PolarPattern002
  6
ByLayer
 62
  256
370
   -1
100
AcDbLine
 10
-99.88519999999994
 20
111.906
 11
-99.88519999999994
 21
111.906
  0
LINE
  5
420
100
AcDbEntity
  8
PolarPattern002
  6
ByLayer
 62
  256
370
   -1
100
AcDbLine
 10
-82.37789999999995
 20
94.39879999999999
 11
-99.88519999999994
 21
111.906
  0
LINE
  5
421
100
AcDbEntity
  8
PolarPattern002
  6
ByLayer
 62
  256
370
   -1
100
AcDbLine
 10
-82.37789999999995
 20
94.39879999999999
 11
-82.37789999999995
 21
94.39879999999999
  0
LINE
  5
422
100
AcDbEntity
  8
PolarPattern002
  6
ByLayer
 62
  256
370
   -1
100
AcDbLine
 10
82.37789999999995
 20
94.39879999999999
 11
99.88519999999994
 21
111.906
  0
LINE
  5
423
100
AcDbEntity
  8
PolarPattern002
  6
ByLayer
 62
  256
370
   -1
100
AcDbLine
 10
99.88519999999994
 20
111.906
 11
99.88519999999994
 21
111.906
  0
LINE
  5
424
100
AcDbEntity
  8
PolarPattern002
  6
ByLayer
 62
  256
370
   -1
100
AcDbLine
 10
82.37789999999995
 20
94.39879999999999
 11
99.88519999999994
 21
111.906
  0
LINE
  5
425
100
AcDbEntity
  8
PolarPattern002
  6
ByLayer
 62
  256
370
   -1
100
AcDbLine
 10
82.37789999999995
 20
94.39879999999999
 11
82.37789999999995
 21
94.39879999999999
  0
ARC
  5
426
100
AcDbEntity
  8
PolarPattern002
  6
ByLayer
 62
  256
370
   -1
100
AcDbCircle
 10
-88.38829999999996
 20
88.38830000000002
 40
8.5
100
AcDbArc
 50
-135
 51
45
  0
LINE
  5
427
100
AcDbEntity
  8
PolarPattern002
  6
ByLayer
 62
  256
370
   -1
100
AcDbLine
 10
-82.37789999999995
 20
94.39879999999999
 11
-82.37789999999995
 21
94.39879999999999
  0
ARC
  5
428
100
AcDbEntity
  8
PolarPattern002
  6
ByLayer
 62
  256
370
   -1
100
AcDbCircle
 10
-88.38829999999996
 20
88.38830000000002
 40
8.5
100
AcDbArc
 50
-135
 51
45
  0
LINE
  5
429
100
AcDbEntity
  8
PolarPattern002
  6
ByLayer
 62
  256
370
   -1
100
AcDbLine
 10
-94.39879999999994
 20
82.37790000000001
 11
-94.39879999999994
 21
82.37790000000001
  0
ARC
  5
42A
100
AcDbEntity
  8
PolarPattern002
  6
ByLayer
 62
  256
370
   -1
100
AcDbCircle
 10
88.38830000000007
 20
88.38830000000002
 40
8.5
100
AcDbArc
 50
135
 51
-45
  0
LINE
  5
42B
100
AcDbEntity
  8
PolarPattern002
  6
ByLayer
 62
  256
370
   -1
100
AcDbLine
 10
94.39879999999994
 20
82.37790000000001
 11
94.39879999999994
 21
82.37790000000001
  0
ARC
  5
42C
100
AcDbEntity
  8
PolarPattern002
  6
ByLayer
 62
  256
370
   -1
100
AcDbCircle
 10
88.38830000000007
 20
88.38830000000002
 40
8.5
100
AcDbArc
 50
135
 51
-45
  0
LINE
  5
42D
100
AcDbEntity
  8
PolarPattern002
  6
ByLayer
 62
  256
370
   -1
100
AcDbLine
 10
82.37789999999995
 20
94.39879999999999
 11
82.37789999999995
 21
94.39879999999999
  0
LINE
  5
42E
100
AcDbEntity
  8
PolarPattern002
  6
ByLayer
 62
  256
370
   -1
100
AcDbLine
 10
-94.39879999999994
 20
82.37790000000001
 11
-111.9059999999999
 21
99.8852
  0
LINE
  5
42F
100
AcDbEntity
  8
PolarPattern002
  6
ByLayer
 62
  256
370
   -1
100
AcDbLine
 10
-111.9059999999999
 20
99.8852
 11
-111.9059999999999
 21
99.8852
  0
LINE
  5
430
100
AcDbEntity
  8
PolarPattern002
  6
ByLayer
 62
  256
370
   -1
100
AcDbLine
 10
-94.39879999999994
 20
82.37790000000001
 11
-111.9059999999999
 21
99.8852
  0
LINE
  5
431
100
AcDbEntity
  8
PolarPattern002
  6
ByLayer
 62
  256
370
   -1
100
AcDbLine
 10
-94.39879999999994
 20
82.37790000000001
 11
-94.39879999999994
 21
82.37790000000001
  0
LINE
  5
432
100
AcDbEntity
  8
PolarPattern002
  6
ByLayer
 62
  256
370
   -1
100
AcDbLine
 10
94.39879999999994
 20
82.37790000000001
 11
111.9059999999999
 21
99.8852
  0
LINE
  5
433
100
AcDbEntity
  8
PolarPattern002
  6
ByLayer
 62
  256
370
   -1
100
AcDbLine
 10
111.9059999999999
 20
99.8852
 11
111.9059999999999
 21
99.8852
  0
LINE
  5
434
100
AcDbEntity
  8
PolarPattern002
  6
ByLayer
 62
  256
370
   -1
100
AcDbLine
 10
94.39879999999994
 20
82.37790000000001
 11
111.9059999999999
 21
99.8852
  0
LINE
  5
435
100
AcDbEntity
  8
PolarPattern002
  6
ByLayer
 62
  256
370
   -1
100
AcDbLine
 10
94.39879999999994
 20
82.37790000000001
 11
94.39879999999994
 21
82.37790000000001
  0
ARC
  5
436
100
AcDbEntity
  8
PolarPattern002
  6
ByLayer
 62
  256
370
   -1
100
AcDbCircle
 10
0
 20
0
 40
150
100
AcDbArc
 50
138.249
 51
138.647
  0
LINE
  5
437
100
AcDbEntity
  8
PolarPattern002
  6
ByLayer
 62
  256
370
   -1
100
AcDbLine
 10
-111.9059999999999
 20
99.8852
 11
-111.9059999999999
 21
99.8852
  0
ARC
  5
438
100
AcDbEntity
  8
PolarPattern002
  6
ByLayer
 62
  256
370
   -1
100
AcDbCircle
 10
0
 20
0
 40
150
100
AcDbArc
 50
138.249
 51
138.647
  0
LINE
  5
439
100
AcDbEntity
  8
PolarPattern002
  6
ByLayer
 62
  256
370
   -1
100
AcDbLine
 10
-112.599
 20
99.10360000000003
 11
-112.599
 21
99.10360000000003
  0
ARC
  5
43A
100
AcDbEntity
  8
PolarPattern002
  6
ByLayer
 62
  256
370
   -1
100
AcDbCircle
 10
0
 20
0
 40
150
100
AcDbArc
 50
41.3514
 51
41.7515
  0
LINE
  5
43B
100
AcDbEntity
  8
PolarPattern002
  6
ByLayer
 62
  256
370
   -1
100
AcDbLine
 10
111.9059999999999
 20
99.8852
 11
111.9059999999999
 21
99.8852
  0
ARC
  5
43C
100
AcDbEntity
  8
PolarPattern002
  6
ByLayer
 62
  256
370
   -1
100
AcDbCircle
 10
0
 20
0
 40
150
100
AcDbArc
 50
41.3514
 51
41.7515
  0
LINE
  5
43D
100
AcDbEntity
  8
PolarPattern002
  6
ByLayer
 62
  256
370
   -1
100
AcDbLine
 10
112.6010000000001
 20
99.10129999999998
 11
112.6010000000001
 21
99.10129999999998
  0
ARC
  5
43E
100
AcDbEntity
  8
PolarPattern002
  6
ByLayer
 62
  256
370
   -1
100
AcDbCircle
 10
-152.74
 20
102.06
 40
40.25
100
AcDbArc
 50
-63.2891
 51
-4.21206
  0
LINE
  5
43F
100
AcDbEntity
  8
PolarPattern002
  6
ByLayer
 62
  256
370
   -1
100
AcDbLine
 10
-112.599
 20
99.10360000000003
 11
-112.599
 21
99.10360000000003
  0
ARC
  5
440
100
AcDbEntity
  8
PolarPattern002
  6
ByLayer
 62
  256
370
   -1
100
AcDbCircle
 10
-152.74
 20
102.06
 40
40.25
100
AcDbArc
 50
-63.2891
 51
-4.21206
  0
LINE
  5
441
100
AcDbEntity
  8
PolarPattern002
  6
ByLayer
 62
  256
370
   -1
100
AcDbLine
 10
-134.648
 20
66.10509999999999
 11
-134.648
 21
66.10509999999999
  0
ARC
  5
442
100
AcDbEntity
  8
PolarPattern002
  6
ByLayer
 62
  256
370
   -1
100
AcDbCircle
 10
152.742
 20
102.057
 40
40.25
100
AcDbArc
 50
-175.789
 51
-116.712
  0
LINE
  5
443
100
AcDbEntity
  8
PolarPattern002
  6
ByLayer
 62
  256
370
   -1
100
AcDbLine
 10
134.6489999999999
 20
66.10230000000001
 11
134.6489999999999
 21
66.10230000000001
  0
ARC
  5
444
100
AcDbEntity
  8
PolarPattern002
  6
ByLayer
 62
  256
370
   -1
100
AcDbCircle
 10
152.742
 20
102.057
 40
40.25
100
AcDbArc
 50
-175.789
 51
-116.712
  0
LINE
  5
445
100
AcDbEntity
  8
PolarPattern002
  6
ByLayer
 62
  256
370
   -1
100
AcDbLine
 10
112.6010000000001
 20
99.10129999999998
 11
112.6010000000001
 21
99.10129999999998
  0
ARC
  5
446
100
AcDbEntity
  8
PolarPattern002
  6
ByLayer
 62
  256
370
   -1
100
AcDbCircle
 10
0
 20
0
 40
150
100
AcDbArc
 50
153.851
 51
154.251
  0
LINE
  5
447
100
AcDbEntity
  8
PolarPattern002
  6
ByLayer
 62
  256
370
   -1
100
AcDbLine
 10
-134.648
 20
66.10509999999999
 11
-134.648
 21
66.10509999999999
  0
ARC
  5
448
100
AcDbEntity
  8
PolarPattern002
  6
ByLayer
 62
  256
370
   -1
100
AcDbCircle
 10
0
 20
0
 40
150
100
AcDbArc
 50
153.851
 51
154.251
  0
LINE
  5
449
100
AcDbEntity
  8
PolarPattern002
  6
ByLayer
 62
  256
370
   -1
100
AcDbLine
 10
-135.106
 20
65.16329999999999
 11
-135.106
 21
65.16329999999999
  0
ARC
  5
44A
100
AcDbEntity
  8
PolarPattern002
  6
ByLayer
 62
  256
370
   -1
100
AcDbCircle
 10
0
 20
0
 40
150
100
AcDbArc
 50
25.7485
 51
26.1474
  0
LINE
  5
44B
100
AcDbEntity
  8
PolarPattern002
  6
ByLayer
 62
  256
370
   -1
100
AcDbLine
 10
134.6489999999999
 20
66.10230000000001
 11
134.6489999999999
 21
66.10230000000001
  0
ARC
  5
44C
100
AcDbEntity
  8
PolarPattern002
  6
ByLayer
 62
  256
370
   -1
100
AcDbCircle
 10
0
 20
0
 40
150
100
AcDbArc
 50
25.7485
 51
26.1474
  0
LINE
  5
44D
100
AcDbEntity
  8
PolarPattern002
  6
ByLayer
 62
  256
370
   -1
100
AcDbLine
 10
135.106
 20
65.16329999999999
 11
135.106
 21
65.16329999999999
  0
LINE
  5
44E
100
AcDbEntity
  8
PolarPattern002
  6
ByLayer
 62
  256
370
   -1
100
AcDbLine
 10
-112.232
 20
55.6884
 11
-135.106
 21
65.16329999999999
  0
LINE
  5
44F
100
AcDbEntity
  8
PolarPattern002
  6
ByLayer
 62
  256
370
   -1
100
AcDbLine
 10
-135.106
 20
65.16329999999999
 11
-135.106
 21
65.16329999999999
  0
LINE
  5
450
100
AcDbEntity
  8
PolarPattern002
  6
ByLayer
 62
  256
370
   -1
100
AcDbLine
 10
-112.232
 20
55.6884
 11
-135.106
 21
65.16329999999999
  0
LINE
  5
451
100
AcDbEntity
  8
PolarPattern002
  6
ByLayer
 62
  256
370
   -1
100
AcDbLine
 10
-112.232
 20
55.6884
 11
-112.232
 21
55.6884
  0
LINE
  5
452
100
AcDbEntity
  8
PolarPattern002
  6
ByLayer
 62
  256
370
   -1
100
AcDbLine
 10
112.232
 20
55.6884
 11
135.106
 21
65.16329999999999
  0
LINE
  5
453
100
AcDbEntity
  8
PolarPattern002
  6
ByLayer
 62
  256
370
   -1
100
AcDbLine
 10
135.106
 20
65.16329999999999
 11
135.106
 21
65.16329999999999
  0
LINE
  5
454
100
AcDbEntity
  8
PolarPattern002
  6
ByLayer
 62
  256
370
   -1
100
AcDbLine
 10
112.232
 20
55.6884
 11
135.106
 21
65.16329999999999
  0
LINE
  5
455
100
AcDbEntity
  8
PolarPattern002
  6
ByLayer
 62
  256
370
   -1
100
AcDbLine
 10
112.232
 20
55.6884
 11
112.232
 21
55.6884
  0
ARC
  5
456
100
AcDbEntity
  8
PolarPattern002
  6
ByLayer
 62
  256
370
   -1
100
AcDbCircle
 10
-115.485
 20
47.83539999999999
 40
8.5
100
AcDbArc
 50
-112.5
 51
67.5
  0
LINE
  5
457
100
AcDbEntity
  8
PolarPattern002
  6
ByLayer
 62
  256
370
   -1
100
AcDbLine
 10
-112.232
 20
55.6884
 11
-112.232
 21
55.6884
  0
ARC
  5
458
100
AcDbEntity
  8
PolarPattern002
  6
ByLayer
 62
  256
370
   -1
100
AcDbCircle
 10
-115.485
 20
47.83539999999999
 40
8.5
100
AcDbArc
 50
-112.5
 51
67.5
  0
LINE
  5
459
100
AcDbEntity
  8
PolarPattern002
  6
ByLayer
 62
  256
370
   -1
100
AcDbLine
 10
-118.7380000000001
 20
39.98250000000002
 11
-118.7380000000001
 21
39.98250000000002
  0
ARC
  5
45A
100
AcDbEntity
  8
PolarPattern002
  6
ByLayer
 62
  256
370
   -1
100
AcDbCircle
 10
115.4849999999999
 20
47.83539999999999
 40
8.5
100
AcDbArc
 50
112.5
 51
-67.5
  0
LINE
  5
45B
100
AcDbEntity
  8
PolarPattern002
  6
ByLayer
 62
  256
370
   -1
100
AcDbLine
 10
118.7380000000001
 20
39.98250000000002
 11
118.7380000000001
 21
39.98250000000002
  0
ARC
  5
45C
100
AcDbEntity
  8
PolarPattern002
  6
ByLayer
 62
  256
370
   -1
100
AcDbCircle
 10
115.4849999999999
 20
47.83539999999999
 40
8.5
100
AcDbArc
 50
112.5
 51
-67.5
  0
LINE
  5
45D
100
AcDbEntity
  8
PolarPattern002
  6
ByLayer
 62
  256
370
   -1
100
AcDbLine
 10
112.232
 20
55.6884
 11
112.232
 21
55.6884
  0
LINE
  5
45E
100
AcDbEntity
  8
PolarPattern002
  6
ByLayer
 62
  256
370
   -1
100
AcDbLine
 10
-118.7380000000001
 20
39.98250000000002
 11
-141.612
 21
49.45729999999998
  0
LINE
  5
45F
100
AcDbEntity
  8
PolarPattern002
  6
ByLayer
 62
  256
370
   -1
100
AcDbLine
 10
-141.612
 20
49.45729999999998
 11
-141.612
 21
49.45729999999998
  0
LINE
  5
460
100
AcDbEntity
  8
PolarPattern002
  6
ByLayer
 62
  256
370
   -1
100
AcDbLine
 10
-118.7380000000001
 20
39.98250000000002
 11
-141.612
 21
49.45729999999998
  0
LINE
  5
461
100
AcDbEntity
  8
PolarPattern002
  6
ByLayer
 62
  256
370
   -1
100
AcDbLine
 10
-118.7380000000001
 20
39.98250000000002
 11
-118.7380000000001
 21
39.98250000000002
  0
LINE
  5
462
100
AcDbEntity
  8
PolarPattern002
  6
ByLayer
 62
  256
370
   -1
100
AcDbLine
 10
118.7380000000001
 20
39.98250000000002
 11
141.6120000000001
 21
49.45729999999998
  0
LINE
  5
463
100
AcDbEntity
  8
PolarPattern002
  6
ByLayer
 62
  256
370
   -1
100
AcDbLine
 10
141.6120000000001
 20
49.45729999999998
 11
141.6120000000001
 21
49.45729999999998
  0
LINE
  5
464
100
AcDbEntity
  8
PolarPattern002
  6
ByLayer
 62
  256
370
   -1
100
AcDbLine
 10
118.7380000000001
 20
39.98250000000002
 11
141.6120000000001
 21
49.45729999999998
  0
LINE
  5
465
100
AcDbEntity
  8
PolarPattern002
  6
ByLayer
 62
  256
370
   -1
100
AcDbLine
 10
118.7380000000001
 20
39.98250000000002
 11
118.7380000000001
 21
39.98250000000002
  0
ARC
  5
466
100
AcDbEntity
  8
PolarPattern002
  6
ByLayer
 62
  256
370
   -1
100
AcDbCircle
 10
0
 20
0
 40
150
100
AcDbArc
 50
160.749
 51
161.147
  0
LINE
  5
467
100
AcDbEntity
  8
PolarPattern002
  6
ByLayer
 62
  256
370
   -1
100
AcDbLine
 10
-141.612
 20
49.45729999999998
 11
-141.612
 21
49.45729999999998
  0
ARC
  5
468
100
AcDbEntity
  8
PolarPattern002
  6
ByLayer
 62
  256
370
   -1
100
AcDbCircle
 10
0
 20
0
 40
150
100
AcDbArc
 50
160.749
 51
161.147
  0
LINE
  5
469
100
AcDbEntity
  8
PolarPattern002
  6
ByLayer
 62
  256
370
   -1
100
AcDbLine
 10
-141.953
 20
48.47019999999998
 11
-141.953
 21
48.47019999999998
  0
ARC
  5
46A
100
AcDbEntity
  8
PolarPattern002
  6
ByLayer
 62
  256
370
   -1
100
AcDbCircle
 10
0
 20
0
 40
150
100
AcDbArc
 50
18.8514
 51
19.2515
  0
LINE
  5
46B
100
AcDbEntity
  8
PolarPattern002
  6
ByLayer
 62
  256
370
   -1
100
AcDbLine
 10
141.6120000000001
 20
49.45729999999998
 11
141.6120000000001
 21
49.45729999999998
  0
ARC
  5
46C
100
AcDbEntity
  8
PolarPattern002
  6
ByLayer
 62
  256
370
   -1
100
AcDbCircle
 10
0
 20
0
 40
150
100
AcDbArc
 50
18.8514
 51
19.2515
  0
LINE
  5
46D
100
AcDbEntity
  8
PolarPattern002
  6
ByLayer
 62
  256
370
   -1
100
AcDbLine
 10
141.954
 20
48.46719999999999
 11
141.954
 21
48.46719999999999
  0
ARC
  5
46E
100
AcDbEntity
  8
PolarPattern002
  6
ByLayer
 62
  256
370
   -1
100
AcDbCircle
 10
-180.17
 20
35.84000000000003
 40
40.25
100
AcDbArc
 50
-40.7891
 51
18.2879
  0
LINE
  5
46F
100
AcDbEntity
  8
PolarPattern002
  6
ByLayer
 62
  256
370
   -1
100
AcDbLine
 10
-141.953
 20
48.47019999999998
 11
-141.953
 21
48.47019999999998
  0
ARC
  5
470
100
AcDbEntity
  8
PolarPattern002
  6
ByLayer
 62
  256
370
   -1
100
AcDbCircle
 10
-180.17
 20
35.84000000000003
 40
40.25
100
AcDbArc
 50
-40.7891
 51
18.2879
  0
LINE
  5
471
100
AcDbEntity
  8
PolarPattern002
  6
ByLayer
 62
  256
370
   -1
100
AcDbLine
 10
-149.696
 20
9.545599999999979
 11
-149.696
 21
9.545599999999979
  0
ARC
  5
472
100
AcDbEntity
  8
PolarPattern002
  6
ByLayer
 62
  256
370
   -1
100
AcDbCircle
 10
0
 20
0
 40
150
100
AcDbArc
 50
176.351
 51
176.751
  0
LINE
  5
473
100
AcDbEntity
  8
PolarPattern002
  6
ByLayer
 62
  256
370
   -1
100
AcDbLine
 10
-149.696
 20
9.545599999999979
 11
-149.696
 21
9.545599999999979
  0
ARC
  5
474
100
AcDbEntity
  8
PolarPattern002
  6
ByLayer
 62
  256
370
   -1
100
AcDbCircle
 10
0
 20
0
 40
150
100
AcDbArc
 50
176.351
 51
176.751
  0
LINE
  5
475
100
AcDbEntity
  8
PolarPattern002
  6
ByLayer
 62
  256
370
   -1
100
AcDbLine
 10
-149.759
 20
8.5
 11
-149.759
 21
8.5
  0
LINE
  5
476
100
AcDbEntity
  8
PolarPattern002
  6
ByLayer
 62
  256
370
   -1
100
AcDbLine
 10
-125
 20
8.5
 11
-149.759
 21
8.5
  0
LINE
  5
477
100
AcDbEntity
  8
PolarPattern002
  6
ByLayer
 62
  256
370
   -1
100
AcDbLine
 10
-149.759
 20
8.5
 11
-149.759
 21
8.5
  0
LINE
  5
478
100
AcDbEntity
  8
PolarPattern002
  6
ByLayer
 62
  256
370
   -1
100
AcDbLine
 10
-125
 20
8.5
 11
-149.759
 21
8.5
  0
LINE
  5
479
100
AcDbEntity
  8
PolarPattern002
  6
ByLayer
 62
  256
370
   -1
100
AcDbLine
 10
-125
 20
8.5
 11
-125
 21
8.5
  0
ARC
  5
47A
100
AcDbEntity
  8
PolarPattern002
  6
ByLayer
 62
  256
370
   -1
100
AcDbCircle
 10
-125
 20
0
 40
8.5
100
AcDbArc
 50
-90
 51
90
  0
LINE
  5
47B
100
AcDbEntity
  8
PolarPattern002
  6
ByLayer
 62
  256
370
   -1
100
AcDbLine
 10
-125
 20
8.5
 11
-125
 21
8.5
  0
ARC
  5
47C
100
AcDbEntity
  8
PolarPattern002
  6
ByLayer
 62
  256
370
   -1
100
AcDbCircle
 10
-125
 20
0
 40
8.5
100
AcDbArc
 50
-90
 51
90
  0
LINE
  5
47D
100
AcDbEntity
  8
PolarPattern002
  6
ByLayer
 62
  256
370
   -1
100
AcDbLine
 10
-125
 20
-8.5
 11
-125
 21
-8.5
  0
ARC
  5
47E
100
AcDbEntity
  8
PolarPattern002
  6
ByLayer
 62
  256
370
   -1
100
AcDbCircle
 10
125
 20
0
 40
8.5
100
AcDbArc
 50
90
 51
-90
  0
LINE
  5
47F
100
AcDbEntity
  8
PolarPattern002
  6
ByLayer
 62
  256
370
   -1
100
AcDbLine
 10
125
 20
-8.5
 11
125
 21
-8.5
  0
ARC
  5
480
100
AcDbEntity
  8
PolarPattern002
  6
ByLayer
 62
  256
370
   -1
100
AcDbCircle
 10
125
 20
0
 40
8.5
100
AcDbArc
 50
90
 51
-90
  0
LINE
  5
481
100
AcDbEntity
  8
PolarPattern002
  6
ByLayer
 62
  256
370
   -1
100
AcDbLine
 10
125
 20
8.5
 11
125
 21
8.5
  0
LINE
  5
482
100
AcDbEntity
  8
PolarPattern002
  6
ByLayer
 62
  256
370
   -1
100
AcDbLine
 10
-125
 20
-8.5
 11
-149.759
 21
-8.5
  0
LINE
  5
483
100
AcDbEntity
  8
PolarPattern002
  6
ByLayer
 62
  256
370
   -1
100
AcDbLine
 10
-149.759
 20
-8.5
 11
-149.759
 21
-8.5
  0
LINE
  5
484
100
AcDbEntity
  8
PolarPattern002
  6
ByLayer
 62
  256
370
   -1
100
AcDbLine
 10
-125
 20
-8.5
 11
-149.759
 21
-8.5
  0
LINE
  5
485
100
AcDbEntity
  8
PolarPattern002
  6
ByLayer
 62
  256
370
   -1
100
AcDbLine
 10
-125
 20
-8.5
 11
-125
 21
-8.5
  0
LINE
  5
486
100
AcDbEntity
  8
PolarPattern002
  6
ByLayer
 62
  256
370
   -1
100
AcDbLine
 10
125
 20
-8.5
 11
149.759
 21
-8.5
  0
LINE
  5
487
100
AcDbEntity
  8
PolarPattern002
  6
ByLayer
 62
  256
370
   -1
100
AcDbLine
 10
149.759
 20
-8.5
 11
149.759
 21
-8.5
  0
LINE
  5
488
100
AcDbEntity
  8
PolarPattern002
  6
ByLayer
 62
  256
370
   -1
100
AcDbLine
 10
125
 20
-8.5
 11
149.759
 21
-8.5
  0
LINE
  5
489
100
AcDbEntity
  8
PolarPattern002
  6
ByLayer
 62
  256
370
   -1
100
AcDbLine
 10
125
 20
-8.5
 11
125
 21
-8.5
  0
ARC
  5
48A
100
AcDbEntity
  8
PolarPattern002
  6
ByLayer
 62
  256
370
   -1
100
AcDbCircle
 10
0
 20
0
 40
150
100
AcDbArc
 50
-176.751
 51
-176.353
  0
LINE
  5
48B
100
AcDbEntity
  8
PolarPattern002
  6
ByLayer
 62
  256
370
   -1
100
AcDbLine
 10
-149.759
 20
-8.5
 11
-149.759
 21
-8.5
  0
ARC
  5
48C
100
AcDbEntity
  8
PolarPattern002
  6
ByLayer
 62
  256
370
   -1
100
AcDbCircle
 10
0
 20
0
 40
150
100
AcDbArc
 50
-176.751
 51
-176.353
  0
LINE
  5
48D
100
AcDbEntity
  8
PolarPattern002
  6
ByLayer
 62
  256
370
   -1
100
AcDbLine
 10
-149.696
 20
-9.54246999999998
 11
-149.696
 21
-9.54246999999998
  0
ARC
  5
48E
100
AcDbEntity
  8
PolarPattern002
  6
ByLayer
 62
  256
370
   -1
100
AcDbCircle
 10
0
 20
0
 40
150
100
AcDbArc
 50
-3.64862
 51
-3.2485
  0
LINE
  5
48F
100
AcDbEntity
  8
PolarPattern002
  6
ByLayer
 62
  256
370
   -1
100
AcDbLine
 10
149.6959999999999
 20
-9.545599999999979
 11
149.6959999999999
 21
-9.545599999999979
  0
ARC
  5
490
100
AcDbEntity
  8
PolarPattern002
  6
ByLayer
 62
  256
370
   -1
100
AcDbCircle
 10
0
 20
0
 40
150
100
AcDbArc
 50
-3.64862
 51
-3.2485
  0
LINE
  5
491
100
AcDbEntity
  8
PolarPattern002
  6
ByLayer
 62
  256
370
   -1
100
AcDbLine
 10
149.759
 20
-8.5
 11
149.759
 21
-8.5
  0
ARC
  5
492
100
AcDbEntity
  8
PolarPattern002
  6
ByLayer
 62
  256
370
   -1
100
AcDbCircle
 10
-180.171
 20
-35.83620000000002
 40
40.25
100
AcDbArc
 50
-18.2891
 51
40.7879
  0
LINE
  5
493
100
AcDbEntity
  8
PolarPattern002
  6
ByLayer
 62
  256
370
   -1
100
AcDbLine
 10
-149.696
 20
-9.54246999999998
 11
-149.696
 21
-9.54246999999998
  0
ARC
  5
494
100
AcDbEntity
  8
PolarPattern002
  6
ByLayer
 62
  256
370
   -1
100
AcDbCircle
 10
-180.171
 20
-35.83620000000002
 40
40.25
100
AcDbArc
 50
-18.2891
 51
40.7879
  0
LINE
  5
495
100
AcDbEntity
  8
PolarPattern002
  6
ByLayer
 62
  256
370
   -1
100
AcDbLine
 10
-141.954
 20
-48.46719999999999
 11
-141.954
 21
-48.46719999999999
  0
ARC
  5
496
100
AcDbEntity
  8
PolarPattern002
  6
ByLayer
 62
  256
370
   -1
100
AcDbCircle
 10
180.1700000000001
 20
-35.84000000000003
 40
40.25
100
AcDbArc
 50
139.211
 51
-161.712
  0
LINE
  5
497
100
AcDbEntity
  8
PolarPattern002
  6
ByLayer
 62
  256
370
   -1
100
AcDbLine
 10
141.953
 20
-48.47019999999998
 11
141.953
 21
-48.47019999999998
  0
ARC
  5
498
100
AcDbEntity
  8
PolarPattern002
  6
ByLayer
 62
  256
370
   -1
100
AcDbCircle
 10
180.1700000000001
 20
-35.84000000000003
 40
40.25
100
AcDbArc
 50
139.211
 51
-161.712
  0
LINE
  5
499
100
AcDbEntity
  8
PolarPattern002
  6
ByLayer
 62
  256
370
   -1
100
AcDbLine
 10
149.6959999999999
 20
-9.545599999999979
 11
149.6959999999999
 21
-9.545599999999979
  0
ARC
  5
49A
100
AcDbEntity
  8
PolarPattern002
  6
ByLayer
 62
  256
370
   -1
100
AcDbCircle
 10
0
 20
0
 40
150
100
AcDbArc
 50
-161.149
 51
-160.749
  0
LINE
  5
49B
100
AcDbEntity
  8
PolarPattern002
  6
ByLayer
 62
  256
370
   -1
100
AcDbLine
 10
-141.954
 20
-48.46719999999999
 11
-141.954
 21
-48.46719999999999
  0
ARC
  5
49C
100
AcDbEntity
  8
PolarPattern002
  6
ByLayer
 62
  256
370
   -1
100
AcDbCircle
 10
0
 20
0
 40
150
100
AcDbArc
 50
-161.149
 51
-160.749
  0
LINE
  5
49D
100
AcDbEntity
  8
PolarPattern002
  6
ByLayer
 62
  256
370
   -1
100
AcDbLine
 10
-141.612
 20
-49.45729999999998
 11
-141.612
 21
-49.45729999999998
  0
ARC
  5
49E
100
AcDbEntity
  8
PolarPattern002
  6
ByLayer
 62
  256
370
   -1
100
AcDbCircle
 10
0
 20
0
 40
150
100
AcDbArc
 50
-19.2515
 51
-18.8526
  0
LINE
  5
49F
100
AcDbEntity
  8
PolarPattern002
  6
ByLayer
 62
  256
370
   -1
100
AcDbLine
 10
141.6120000000001
 20
-49.45729999999998
 11
141.6120000000001
 21
-49.45729999999998
  0
ARC
  5
4A0
100
AcDbEntity
  8
PolarPattern002
  6
ByLayer
 62
  256
370
   -1
100
AcDbCircle
 10
0
 20
0
 40
150
100
AcDbArc
 50
-19.2515
 51
-18.8526
  0
LINE
  5
4A1
100
AcDbEntity
  8
PolarPattern002
  6
ByLayer
 62
  256
370
   -1
100
AcDbLine
 10
141.953
 20
-48.47019999999998
 11
141.953
 21
-48.47019999999998
  0
LINE
  5
4A2
100
AcDbEntity
  8
PolarPattern002
  6
ByLayer
 62
  256
370
   -1
100
AcDbLine
 10
-118.7380000000001
 20
-39.98250000000002
 11
-141.612
 21
-49.45729999999998
  0
LINE
  5
4A3
100
AcDbEntity
  8
PolarPattern002
  6
ByLayer
 62
  256
370
   -1
100
AcDbLine
 10
-141.612
 20
-49.45729999999998
 11
-141.612
 21
-49.45729999999998
  0
LINE
  5
4A4
100
AcDbEntity
  8
PolarPattern002
  6
ByLayer
 62
  256
370
   -1
100
AcDbLine
 10
-118.7380000000001
 20
-39.98250000000002
 11
-141.612
 21
-49.45729999999998
  0
LINE
  5
4A5
100
AcDbEntity
  8
PolarPattern002
  6
ByLayer
 62
  256
370
   -1
100
AcDbLine
 10
-118.7380000000001
 20
-39.98250000000002
 11
-118.7380000000001
 21
-39.98250000000002
  0
LINE
  5
4A6
100
AcDbEntity
  8
PolarPattern002
  6
ByLayer
 62
  256
370
   -1
100
AcDbLine
 10
118.7380000000001
 20
-39.98250000000002
 11
141.6120000000001
 21
-49.45729999999998
  0
LINE
  5
4A7
100
AcDbEntity
  8
PolarPattern002
  6
ByLayer
 62
  256
370
   -1
100
AcDbLine
 10
141.6120000000001
 20
-49.45729999999998
 11
141.6120000000001
 21
-49.45729999999998
  0
LINE
  5
4A8
100
AcDbEntity
  8
PolarPattern002
  6
ByLayer
 62
  256
370
   -1
100
AcDbLine
 10
118.7380000000001
 20
-39.98250000000002
 11
141.6120000000001
 21
-49.45729999999998
  0
LINE
  5
4A9
100
AcDbEntity
  8
PolarPattern002
  6
ByLayer
 62
  256
370
   -1
100
AcDbLine
 10
118.7380000000001
 20
-39.98250000000002
 11
118.7380000000001
 21
-39.98250000000002
  0
ARC
  5
4AA
100
AcDbEntity
  8
PolarPattern002
  6
ByLayer
 62
  256
370
   -1
100
AcDbCircle
 10
-115.485
 20
-47.83539999999999
 40
8.5
100
AcDbArc
 50
-67.5
 51
112.5
  0
LINE
  5
4AB
100
AcDbEntity
  8
PolarPattern002
  6
ByLayer
 62
  256
370
   -1
100
AcDbLine
 10
-118.7380000000001
 20
-39.98250000000002
 11
-118.7380000000001
 21
-39.98250000000002
  0
ARC
  5
4AC
100
AcDbEntity
  8
PolarPattern002
  6
ByLayer
 62
  256
370
   -1
100
AcDbCircle
 10
-115.485
 20
-47.83539999999999
 40
8.5
100
AcDbArc
 50
-67.5
 51
112.5
  0
LINE
  5
4AD
100
AcDbEntity
  8
PolarPattern002
  6
ByLayer
 62
  256
370
   -1
100
AcDbLine
 10
-112.232
 20
-55.6884
 11
-112.232
 21
-55.6884
  0
ARC
  5
4AE
100
AcDbEntity
  8
PolarPattern002
  6
ByLayer
 62
  256
370
   -1
100
AcDbCircle
 10
115.4849999999999
 20
-47.83539999999999
 40
8.5
100
AcDbArc
 50
67.5
 51
-112.5
  0
LINE
  5
4AF
100
AcDbEntity
  8
PolarPattern002
  6
ByLayer
 62
  256
370
   -1
100
AcDbLine
 10
112.232
 20
-55.6884
 11
112.232
 21
-55.6884
  0
ARC
  5
4B0
100
AcDbEntity
  8
PolarPattern002
  6
ByLayer
 62
  256
370
   -1
100
AcDbCircle
 10
115.4849999999999
 20
-47.83539999999999
 40
8.5
100
AcDbArc
 50
67.5
 51
-112.5
  0
LINE
  5
4B1
100
AcDbEntity
  8
PolarPattern002
  6
ByLayer
 62
  256
370
   -1
100
AcDbLine
 10
118.7380000000001
 20
-39.98250000000002
 11
118.7380000000001
 21
-39.98250000000002
  0
LINE
  5
4B2
100
AcDbEntity
  8
PolarPattern002
  6
ByLayer
 62
  256
370
   -1
100
AcDbLine
 10
-112.232
 20
-55.6884
 11
-135.106
 21
-65.16329999999999
  0
LINE
  5
4B3
100
AcDbEntity
  8
PolarPattern002
  6
ByLayer
 62
  256
370
   -1
100
AcDbLine
 10
-135.106
 20
-65.16329999999999
 11
-135.106
 21
-65.16329999999999
  0
LINE
  5
4B4
100
AcDbEntity
  8
PolarPattern002
  6
ByLayer
 62
  256
370
   -1
100
AcDbLine
 10
-112.232
 20
-55.6884
 11
-135.106
 21
-65.16329999999999
  0
LINE
  5
4B5
100
AcDbEntity
  8
PolarPattern002
  6
ByLayer
 62
  256
370
   -1
100
AcDbLine
 10
-112.232
 20
-55.6884
 11
-112.232
 21
-55.6884
  0
LINE
  5
4B6
100
AcDbEntity
  8
PolarPattern002
  6
ByLayer
 62
  256
370
   -1
100
AcDbLine
 10
112.232
 20
-55.6884
 11
135.106
 21
-65.16329999999999
  0
LINE
  5
4B7
100
AcDbEntity
  8
PolarPattern002
  6
ByLayer
 62
  256
370
   -1
100
AcDbLine
 10
135.106
 20
-65.16329999999999
 11
135.106
 21
-65.16329999999999
  0
LINE
  5
4B8
100
AcDbEntity
  8
PolarPattern002
  6
ByLayer
 62
  256
370
   -1
100
AcDbLine
 10
112.232
 20
-55.6884
 11
135.106
 21
-65.16329999999999
  0
LINE
  5
4B9
100
AcDbEntity
  8
PolarPattern002
  6
ByLayer
 62
  256
370
   -1
100
AcDbLine
 10
112.232
 20
-55.6884
 11
112.232
 21
-55.6884
  0
ARC
  5
4BA
100
AcDbEntity
  8
PolarPattern002
  6
ByLayer
 62
  256
370
   -1
100
AcDbCircle
 10
0
 20
0
 40
150
100
AcDbArc
 50
-154.251
 51
-153.853
  0
LINE
  5
4BB
100
AcDbEntity
  8
PolarPattern002
  6
ByLayer
 62
  256
370
   -1
100
AcDbLine
 10
-135.106
 20
-65.16329999999999
 11
-135.106
 21
-65.16329999999999
  0
ARC
  5
4BC
100
AcDbEntity
  8
PolarPattern002
  6
ByLayer
 62
  256
370
   -1
100
AcDbCircle
 10
0
 20
0
 40
150
100
AcDbArc
 50
-154.251
 51
-153.853
  0
LINE
  5
4BD
100
AcDbEntity
  8
PolarPattern002
  6
ByLayer
 62
  256
370
   -1
100
AcDbLine
 10
-134.649
 20
-66.10230000000001
 11
-134.649
 21
-66.10230000000001
  0
ARC
  5
4BE
100
AcDbEntity
  8
PolarPattern002
  6
ByLayer
 62
  256
370
   -1
100
AcDbCircle
 10
0
 20
0
 40
150
100
AcDbArc
 50
-26.1486
 51
-25.7485
  0
LINE
  5
4BF
100
AcDbEntity
  8
PolarPattern002
  6
ByLayer
 62
  256
370
   -1
100
AcDbLine
 10
134.6479999999999
 20
-66.10509999999999
 11
134.6479999999999
 21
-66.10509999999999
  0
ARC
  5
4C0
100
AcDbEntity
  8
PolarPattern002
  6
ByLayer
 62
  256
370
   -1
100
AcDbCircle
 10
0
 20
0
 40
150
100
AcDbArc
 50
-26.1486
 51
-25.7485
  0
LINE
  5
4C1
100
AcDbEntity
  8
PolarPattern002
  6
ByLayer
 62
  256
370
   -1
100
AcDbLine
 10
135.106
 20
-65.16329999999999
 11
135.106
 21
-65.16329999999999
  0
ARC
  5
4C2
100
AcDbEntity
  8
PolarPattern002
  6
ByLayer
 62
  256
370
   -1
100
AcDbCircle
 10
-152.742
 20
-102.057
 40
40.25
100
AcDbArc
 50
4.21086
 51
63.2879
  0
LINE
  5
4C3
100
AcDbEntity
  8
PolarPattern002
  6
ByLayer
 62
  256
370
   -1
100
AcDbLine
 10
-134.649
 20
-66.10230000000001
 11
-134.649
 21
-66.10230000000001
  0
ARC
  5
4C4
100
AcDbEntity
  8
PolarPattern002
  6
ByLayer
 62
  256
370
   -1
100
AcDbCircle
 10
-152.742
 20
-102.057
 40
40.25
100
AcDbArc
 50
4.21086
 51
63.2879
  0
LINE
  5
4C5
100
AcDbEntity
  8
PolarPattern002
  6
ByLayer
 62
  256
370
   -1
100
AcDbLine
 10
-112.601
 20
-99.10129999999998
 11
-112.601
 21
-99.10129999999998
  0
ARC
  5
4C6
100
AcDbEntity
  8
PolarPattern002
  6
ByLayer
 62
  256
370
   -1
100
AcDbCircle
 10
152.74
 20
-102.06
 40
40.25
100
AcDbArc
 50
116.711
 51
175.788
  0
LINE
  5
4C7
100
AcDbEntity
  8
PolarPattern002
  6
ByLayer
 62
  256
370
   -1
100
AcDbLine
 10
112.5989999999999
 20
-99.1036
 11
112.5989999999999
 21
-99.1036
  0
ARC
  5
4C8
100
AcDbEntity
  8
PolarPattern002
  6
ByLayer
 62
  256
370
   -1
100
AcDbCircle
 10
152.74
 20
-102.06
 40
40.25
100
AcDbArc
 50
116.711
 51
175.788
  0
LINE
  5
4C9
100
AcDbEntity
  8
PolarPattern002
  6
ByLayer
 62
  256
370
   -1
100
AcDbLine
 10
134.6479999999999
 20
-66.10509999999999
 11
134.6479999999999
 21
-66.10509999999999
  0
ARC
  5
4CA
100
AcDbEntity
  8
PolarPattern002
  6
ByLayer
 62
  256
370
   -1
100
AcDbCircle
 10
0
 20
0
 40
150
100
AcDbArc
 50
-138.649
 51
-138.249
  0
LINE
  5
4CB
100
AcDbEntity
  8
PolarPattern002
  6
ByLayer
 62
  256
370
   -1
100
AcDbLine
 10
-112.601
 20
-99.10129999999998
 11
-112.601
 21
-99.10129999999998
  0
ARC
  5
4CC
100
AcDbEntity
  8
PolarPattern002
  6
ByLayer
 62
  256
370
   -1
100
AcDbCircle
 10
0
 20
0
 40
150
100
AcDbArc
 50
-138.649
 51
-138.249
  0
LINE
  5
4CD
100
AcDbEntity
  8
PolarPattern002
  6
ByLayer
 62
  256
370
   -1
100
AcDbLine
 10
-111.9059999999999
 20
-99.8852
 11
-111.9059999999999
 21
-99.8852
  0
ARC
  5
4CE
100
AcDbEntity
  8
PolarPattern002
  6
ByLayer
 62
  256
370
   -1
100
AcDbCircle
 10
0
 20
0
 40
150
100
AcDbArc
 50
-41.7515
 51
-41.3526
  0
LINE
  5
4CF
100
AcDbEntity
  8
PolarPattern002
  6
ByLayer
 62
  256
370
   -1
100
AcDbLine
 10
111.9059999999999
 20
-99.8852
 11
111.9059999999999
 21
-99.8852
  0
ARC
  5
4D0
100
AcDbEntity
  8
PolarPattern002
  6
ByLayer
 62
  256
370
   -1
100
AcDbCircle
 10
0
 20
0
 40
150
100
AcDbArc
 50
-41.7515
 51
-41.3526
  0
LINE
  5
4D1
100
AcDbEntity
  8
PolarPattern002
  6
ByLayer
 62
  256
370
   -1
100
AcDbLine
 10
112.5989999999999
 20
-99.1036
 11
112.5989999999999
 21
-99.1036
  0
LINE
  5
4D2
100
AcDbEntity
  8
PolarPattern002
  6
ByLayer
 62
  256
370
   -1
100
AcDbLine
 10
-94.39879999999994
 20
-82.37790000000001
 11
-111.9059999999999
 21
-99.8852
  0
LINE
  5
4D3
100
AcDbEntity
  8
PolarPattern002
  6
ByLayer
 62
  256
370
   -1
100
AcDbLine
 10
-111.9059999999999
 20
-99.8852
 11
-111.9059999999999
 21
-99.8852
  0
LINE
  5
4D4
100
AcDbEntity
  8
PolarPattern002
  6
ByLayer
 62
  256
370
   -1
100
AcDbLine
 10
-94.39879999999994
 20
-82.37790000000001
 11
-111.9059999999999
 21
-99.8852
  0
LINE
  5
4D5
100
AcDbEntity
  8
PolarPattern002
  6
ByLayer
 62
  256
370
   -1
100
AcDbLine
 10
-94.39879999999994
 20
-82.37790000000001
 11
-94.39879999999994
 21
-82.37790000000001
  0
LINE
  5
4D6
100
AcDbEntity
  8
PolarPattern002
  6
ByLayer
 62
  256
370
   -1
100
AcDbLine
 10
94.39879999999994
 20
-82.37790000000001
 11
111.9059999999999
 21
-99.8852
  0
LINE
  5
4D7
100
AcDbEntity
  8
PolarPattern002
  6
ByLayer
 62
  256
370
   -1
100
AcDbLine
 10
111.9059999999999
 20
-99.8852
 11
111.9059999999999
 21
-99.8852
  0
LINE
  5
4D8
100
AcDbEntity
  8
PolarPattern002
  6
ByLayer
 62
  256
370
   -1
100
AcDbLine
 10
94.39879999999994
 20
-82.37790000000001
 11
111.9059999999999
 21
-99.8852
  0
LINE
  5
4D9
100
AcDbEntity
  8
PolarPattern002
  6
ByLayer
 62
  256
370
   -1
100
AcDbLine
 10
94.39879999999994
 20
-82.37790000000001
 11
94.39879999999994
 21
-82.37790000000001
  0
ARC
  5
4DA
100
AcDbEntity
  8
PolarPattern002
  6
ByLayer
 62
  256
370
   -1
100
AcDbCircle
 10
-88.38829999999996
 20
-88.38830000000002
 40
8.5
100
AcDbArc
 50
-45
 51
135
  0
LINE
  5
4DB
100
AcDbEntity
  8
PolarPattern002
  6
ByLayer
 62
  256
370
   -1
100
AcDbLine
 10
-94.39879999999994
 20
-82.37790000000001
 11
-94.39879999999994
 21
-82.37790000000001
  0
ARC
  5
4DC
100
AcDbEntity
  8
PolarPattern002
  6
ByLayer
 62
  256
370
   -1
100
AcDbCircle
 10
-88.38829999999996
 20
-88.38830000000002
 40
8.5
100
AcDbArc
 50
-45
 51
135
  0
LINE
  5
4DD
100
AcDbEntity
  8
PolarPattern002
  6
ByLayer
 62
  256
370
   -1
100
AcDbLine
 10
-82.37789999999995
 20
-94.39879999999999
 11
-82.37789999999995
 21
-94.39879999999999
  0
ARC
  5
4DE
100
AcDbEntity
  8
PolarPattern002
  6
ByLayer
 62
  256
370
   -1
100
AcDbCircle
 10
88.38830000000007
 20
-88.38830000000002
 40
8.5
100
AcDbArc
 50
45
 51
-135
  0
LINE
  5
4DF
100
AcDbEntity
  8
PolarPattern002
  6
ByLayer
 62
  256
370
   -1
100
AcDbLine
 10
82.37789999999995
 20
-94.39879999999999
 11
82.37789999999995
 21
-94.39879999999999
  0
ARC
  5
4E0
100
AcDbEntity
  8
PolarPattern002
  6
ByLayer
 62
  256
370
   -1
100
AcDbCircle
 10
88.38830000000007
 20
-88.38830000000002
 40
8.5
100
AcDbArc
 50
45
 51
-135
  0
LINE
  5
4E1
100
AcDbEntity
  8
PolarPattern002
  6
ByLayer
 62
  256
370
   -1
100
AcDbLine
 10
94.39879999999994
 20
-82.37790000000001
 11
94.39879999999994
 21
-82.37790000000001
  0
LINE
  5
4E2
100
AcDbEntity
  8
PolarPattern002
  6
ByLayer
 62
  256
370
   -1
100
AcDbLine
 10
-82.37789999999995
 20
-94.39879999999999
 11
-99.88519999999994
 21
-111.906
  0
LINE
  5
4E3
100
AcDbEntity
  8
PolarPattern002
  6
ByLayer
 62
  256
370
   -1
100
AcDbLine
 10
-99.88519999999994
 20
-111.906
 11
-99.88519999999994
 21
-111.906
  0
LINE
  5
4E4
100
AcDbEntity
  8
PolarPattern002
  6
ByLayer
 62
  256
370
   -1
100
AcDbLine
 10
-82.37789999999995
 20
-94.39879999999999
 11
-99.88519999999994
 21
-111.906
  0
LINE
  5
4E5
100
AcDbEntity
  8
PolarPattern002
  6
ByLayer
 62
  256
370
   -1
100
AcDbLine
 10
-82.37789999999995
 20
-94.39879999999999
 11
-82.37789999999995
 21
-94.39879999999999
  0
LINE
  5
4E6
100
AcDbEntity
  8
PolarPattern002
  6
ByLayer
 62
  256
370
   -1
100
AcDbLine
 10
82.37789999999995
 20
-94.39879999999999
 11
99.88519999999994
 21
-111.906
  0
LINE
  5
4E7
100
AcDbEntity
  8
PolarPattern002
  6
ByLayer
 62
  256
370
   -1
100
AcDbLine
 10
99.88519999999994
 20
-111.906
 11
99.88519999999994
 21
-111.906
  0
LINE
  5
4E8
100
AcDbEntity
  8
PolarPattern002
  6
ByLayer
 62
  256
370
   -1
100
AcDbLine
 10
82.37789999999995
 20
-94.39879999999999
 11
99.88519999999994
 21
-111.906
  0
LINE
  5
4E9
100
AcDbEntity
  8
PolarPattern002
  6
ByLayer
 62
  256
370
   -1
100
AcDbLine
 10
82.37789999999995
 20
-94.39879999999999
 11
82.37789999999995
 21
-94.39879999999999
  0
ARC
  5
4EA
100
AcDbEntity
  8
PolarPattern002
  6
ByLayer
 62
  256
370
   -1
100
AcDbCircle
 10
0
 20
0
 40
150
100
AcDbArc
 50
-131.751
 51
-131.353
  0
LINE
  5
4EB
100
AcDbEntity
  8
PolarPattern002
  6
ByLayer
 62
  256
370
   -1
100
AcDbLine
 10
-99.88519999999994
 20
-111.906
 11
-99.88519999999994
 21
-111.906
  0
ARC
  5
4EC
100
AcDbEntity
  8
PolarPattern002
  6
ByLayer
 62
  256
370
   -1
100
AcDbCircle
 10
0
 20
0
 40
150
100
AcDbArc
 50
-131.751
 51
-131.353
  0
LINE
  5
4ED
100
AcDbEntity
  8
PolarPattern002
  6
ByLayer
 62
  256
370
   -1
100
AcDbLine
 10
-99.10360000000003
 20
-112.599
 11
-99.10360000000003
 21
-112.599
  0
ARC
  5
4EE
100
AcDbEntity
  8
PolarPattern002
  6
ByLayer
 62
  256
370
   -1
100
AcDbCircle
 10
0
 20
0
 40
150
100
AcDbArc
 50
-48.6486
 51
-48.2485
  0
LINE
  5
4EF
100
AcDbEntity
  8
PolarPattern002
  6
ByLayer
 62
  256
370
   -1
100
AcDbLine
 10
99.10130000000004
 20
-112.601
 11
99.10130000000004
 21
-112.601
  0
ARC
  5
4F0
100
AcDbEntity
  8
PolarPattern002
  6
ByLayer
 62
  256
370
   -1
100
AcDbCircle
 10
0
 20
0
 40
150
100
AcDbArc
 50
-48.6486
 51
-48.2485
  0
LINE
  5
4F1
100
AcDbEntity
  8
PolarPattern002
  6
ByLayer
 62
  256
370
   -1
100
AcDbLine
 10
99.88519999999994
 20
-111.906
 11
99.88519999999994
 21
-111.906
  0
ARC
  5
4F2
100
AcDbEntity
  8
PolarPattern002
  6
ByLayer
 62
  256
370
   -1
100
AcDbCircle
 10
-102.0599999999999
 20
-152.74
 40
40.25
100
AcDbArc
 50
26.7109
 51
85.78789999999999
  0
LINE
  5
4F3
100
AcDbEntity
  8
PolarPattern002
  6
ByLayer
 62
  256
370
   -1
100
AcDbLine
 10
-99.10360000000003
 20
-112.599
 11
-99.10360000000003
 21
-112.599
  0
ARC
  5
4F4
100
AcDbEntity
  8
PolarPattern002
  6
ByLayer
 62
  256
370
   -1
100
AcDbCircle
 10
-102.0599999999999
 20
-152.74
 40
40.25
100
AcDbArc
 50
26.7109
 51
85.78789999999999
  0
LINE
  5
4F5
100
AcDbEntity
  8
PolarPattern002
  6
ByLayer
 62
  256
370
   -1
100
AcDbLine
 10
-66.10509999999999
 20
-134.648
 11
-66.10509999999999
 21
-134.648
  0
ARC
  5
4F6
100
AcDbEntity
  8
PolarPattern002
  6
ByLayer
 62
  256
370
   -1
100
AcDbCircle
 10
102.057
 20
-152.742
 40
40.25
100
AcDbArc
 50
94.2109
 51
153.288
  0
LINE
  5
4F7
100
AcDbEntity
  8
PolarPattern002
  6
ByLayer
 62
  256
370
   -1
100
AcDbLine
 10
66.10230000000001
 20
-134.649
 11
66.10230000000001
 21
-134.649
  0
ARC
  5
4F8
100
AcDbEntity
  8
PolarPattern002
  6
ByLayer
 62
  256
370
   -1
100
AcDbCircle
 10
102.057
 20
-152.742
 40
40.25
100
AcDbArc
 50
94.2109
 51
153.288
  0
LINE
  5
4F9
100
AcDbEntity
  8
PolarPattern002
  6
ByLayer
 62
  256
370
   -1
100
AcDbLine
 10
99.10130000000004
 20
-112.601
 11
99.10130000000004
 21
-112.601
  0
ARC
  5
4FA
100
AcDbEntity
  8
PolarPattern002
  6
ByLayer
 62
  256
370
   -1
100
AcDbCircle
 10
0
 20
0
 40
150
100
AcDbArc
 50
-116.149
 51
-115.749
  0
LINE
  5
4FB
100
AcDbEntity
  8
PolarPattern002
  6
ByLayer
 62
  256
370
   -1
100
AcDbLine
 10
-66.10509999999999
 20
-134.648
 11
-66.10509999999999
 21
-134.648
  0
ARC
  5
4FC
100
AcDbEntity
  8
PolarPattern002
  6
ByLayer
 62
  256
370
   -1
100
AcDbCircle
 10
0
 20
0
 40
150
100
AcDbArc
 50
-116.149
 51
-115.749
  0
LINE
  5
4FD
100
AcDbEntity
  8
PolarPattern002
  6
ByLayer
 62
  256
370
   -1
100
AcDbLine
 10
-65.16330000000005
 20
-135.106
 11
-65.16330000000005
 21
-135.106
  0
ARC
  5
4FE
100
AcDbEntity
  8
PolarPattern002
  6
ByLayer
 62
  256
370
   -1
100
AcDbCircle
 10
0
 20
0
 40
150
100
AcDbArc
 50
-64.25149999999999
 51
-63.8526
  0
LINE
  5
4FF
100
AcDbEntity
  8
PolarPattern002
  6
ByLayer
 62
  256
370
   -1
100
AcDbLine
 10
65.16329999999994
 20
-135.106
 11
65.16329999999994
 21
-135.106
  0
ARC
  5
500
100
AcDbEntity
  8
PolarPattern002
  6
ByLayer
 62
  256
370
   -1
100
AcDbCircle
 10
0
 20
0
 40
150
100
AcDbArc
 50
-64.25149999999999
 51
-63.8526
  0
LINE
  5
501
100
AcDbEntity
  8
PolarPattern002
  6
ByLayer
 62
  256
370
   -1
100
AcDbLine
 10
66.10230000000001
 20
-134.649
 11
66.10230000000001
 21
-134.649
  0
LINE
  5
502
100
AcDbEntity
  8
PolarPattern002
  6
ByLayer
 62
  256
370
   -1
100
AcDbLine
 10
-55.6884
 20
-112.232
 11
-65.16330000000005
 21
-135.106
  0
LINE
  5
503
100
AcDbEntity
  8
PolarPattern002
  6
ByLayer
 62
  256
370
   -1
100
AcDbLine
 10
-65.16330000000005
 20
-135.106
 11
-65.16330000000005
 21
-135.106
  0
LINE
  5
504
100
AcDbEntity
  8
PolarPattern002
  6
ByLayer
 62
  256
370
   -1
100
AcDbLine
 10
-55.6884
 20
-112.232
 11
-65.16330000000005
 21
-135.106
  0
LINE
  5
505
100
AcDbEntity
  8
PolarPattern002
  6
ByLayer
 62
  256
370
   -1
100
AcDbLine
 10
-55.6884
 20
-112.232
 11
-55.6884
 21
-112.232
  0
LINE
  5
506
100
AcDbEntity
  8
PolarPattern002
  6
ByLayer
 62
  256
370
   -1
100
AcDbLine
 10
55.6884
 20
-112.232
 11
65.16329999999994
 21
-135.106
  0
LINE
  5
507
100
AcDbEntity
  8
PolarPattern002
  6
ByLayer
 62
  256
370
   -1
100
AcDbLine
 10
65.16329999999994
 20
-135.106
 11
65.16329999999994
 21
-135.106
  0
LINE
  5
508
100
AcDbEntity
  8
PolarPattern002
  6
ByLayer
 62
  256
370
   -1
100
AcDbLine
 10
55.6884
 20
-112.232
 11
65.16329999999994
 21
-135.106
  0
LINE
  5
509
100
AcDbEntity
  8
PolarPattern002
  6
ByLayer
 62
  256
370
   -1
100
AcDbLine
 10
55.6884
 20
-112.232
 11
55.6884
 21
-112.232
  0
ARC
  5
50A
100
AcDbEntity
  8
PolarPattern002
  6
ByLayer
 62
  256
370
   -1
100
AcDbCircle
 10
-47.83540000000005
 20
-115.485
 40
8.5
100
AcDbArc
 50
-22.5
 51
157.5
  0
LINE
  5
50B
100
AcDbEntity
  8
PolarPattern002
  6
ByLayer
 62
  256
370
   -1
100
AcDbLine
 10
-55.6884
 20
-112.232
 11
-55.6884
 21
-112.232
  0
ARC
  5
50C
100
AcDbEntity
  8
PolarPattern002
  6
ByLayer
 62
  256
370
   -1
100
AcDbCircle
 10
-47.83540000000005
 20
-115.485
 40
8.5
100
AcDbArc
 50
-22.5
 51
157.5
  0
LINE
  5
50D
100
AcDbEntity
  8
PolarPattern002
  6
ByLayer
 62
  256
370
   -1
100
AcDbLine
 10
-39.98249999999996
 20
-118.738
 11
-39.98249999999996
 21
-118.738
  0
ARC
  5
50E
100
AcDbEntity
  8
PolarPattern002
  6
ByLayer
 62
  256
370
   -1
100
AcDbCircle
 10
47.83540000000005
 20
-115.485
 40
8.5
100
AcDbArc
 50
22.5
 51
-157.5
  0
LINE
  5
50F
100
AcDbEntity
  8
PolarPattern002
  6
ByLayer
 62
  256
370
   -1
100
AcDbLine
 10
39.98249999999996
 20
-118.738
 11
39.98249999999996
 21
-118.738
  0
ARC
  5
510
100
AcDbEntity
  8
PolarPattern002
  6
ByLayer
 62
  256
370
   -1
100
AcDbCircle
 10
47.83540000000005
 20
-115.485
 40
8.5
100
AcDbArc
 50
22.5
 51
-157.5
  0
LINE
  5
511
100
AcDbEntity
  8
PolarPattern002
  6
ByLayer
 62
  256
370
   -1
100
AcDbLine
 10
55.6884
 20
-112.232
 11
55.6884
 21
-112.232
  0
LINE
  5
512
100
AcDbEntity
  8
PolarPattern002
  6
ByLayer
 62
  256
370
   -1
100
AcDbLine
 10
-39.98249999999996
 20
-118.738
 11
-49.45730000000003
 21
-141.612
  0
LINE
  5
513
100
AcDbEntity
  8
PolarPattern002
  6
ByLayer
 62
  256
370
   -1
100
AcDbLine
 10
-49.45730000000003
 20
-141.612
 11
-49.45730000000003
 21
-141.612
  0
LINE
  5
514
100
AcDbEntity
  8
PolarPattern002
  6
ByLayer
 62
  256
370
   -1
100
AcDbLine
 10
-39.98249999999996
 20
-118.738
 11
-49.45730000000003
 21
-141.612
  0
LINE
  5
515
100
AcDbEntity
  8
PolarPattern002
  6
ByLayer
 62
  256
370
   -1
100
AcDbLine
 10
-39.98249999999996
 20
-118.738
 11
-39.98249999999996
 21
-118.738
  0
LINE
  5
516
100
AcDbEntity
  8
PolarPattern002
  6
ByLayer
 62
  256
370
   -1
100
AcDbLine
 10
39.98249999999996
 20
-118.738
 11
49.45730000000003
 21
-141.612
  0
LINE
  5
517
100
AcDbEntity
  8
PolarPattern002
  6
ByLayer
 62
  256
370
   -1
100
AcDbLine
 10
49.45730000000003
 20
-141.612
 11
49.45730000000003
 21
-141.612
  0
LINE
  5
518
100
AcDbEntity
  8
PolarPattern002
  6
ByLayer
 62
  256
370
   -1
100
AcDbLine
 10
39.98249999999996
 20
-118.738
 11
49.45730000000003
 21
-141.612
  0
LINE
  5
519
100
AcDbEntity
  8
PolarPattern002
  6
ByLayer
 62
  256
370
   -1
100
AcDbLine
 10
39.98249999999996
 20
-118.738
 11
39.98249999999996
 21
-118.738
  0
ARC
  5
51A
100
AcDbEntity
  8
PolarPattern002
  6
ByLayer
 62
  256
370
   -1
100
AcDbCircle
 10
0
 20
0
 40
150
100
AcDbArc
 50
-109.251
 51
-108.853
  0
LINE
  5
51B
100
AcDbEntity
  8
PolarPattern002
  6
ByLayer
 62
  256
370
   -1
100
AcDbLine
 10
-49.45730000000003
 20
-141.612
 11
-49.45730000000003
 21
-141.612
  0
ARC
  5
51C
100
AcDbEntity
  8
PolarPattern002
  6
ByLayer
 62
  256
370
   -1
100
AcDbCircle
 10
0
 20
0
 40
150
100
AcDbArc
 50
-109.251
 51
-108.853
  0
LINE
  5
51D
100
AcDbEntity
  8
PolarPattern002
  6
ByLayer
 62
  256
370
   -1
100
AcDbLine
 10
-48.47019999999998
 20
-141.953
 11
-48.47019999999998
 21
-141.953
  0
ARC
  5
51E
100
AcDbEntity
  8
PolarPattern002
  6
ByLayer
 62
  256
370
   -1
100
AcDbCircle
 10
0
 20
0
 40
150
100
AcDbArc
 50
-71.1486
 51
-70.74850000000001
  0
LINE
  5
51F
100
AcDbEntity
  8
PolarPattern002
  6
ByLayer
 62
  256
370
   -1
100
AcDbLine
 10
48.46720000000005
 20
-141.954
 11
48.46720000000005
 21
-141.954
  0
ARC
  5
520
100
AcDbEntity
  8
PolarPattern002
  6
ByLayer
 62
  256
370
   -1
100
AcDbCircle
 10
0
 20
0
 40
150
100
AcDbArc
 50
-71.1486
 51
-70.74850000000001
  0
LINE
  5
521
100
AcDbEntity
  8
PolarPattern002
  6
ByLayer
 62
  256
370
   -1
100
AcDbLine
 10
49.45730000000003
 20
-141.612
 11
49.45730000000003
 21
-141.612
  0
ARC
  5
522
100
AcDbEntity
  8
PolarPattern002
  6
ByLayer
 62
  256
370
   -1
100
AcDbCircle
 10
-35.84000000000003
 20
-180.17
 40
40.25
100
AcDbArc
 50
49.2109
 51
108.288
  0
LINE
  5
523
100
AcDbEntity
  8
PolarPattern002
  6
ByLayer
 62
  256
370
   -1
100
AcDbLine
 10
-48.47019999999998
 20
-141.953
 11
-48.47019999999998
 21
-141.953
  0
ARC
  5
524
100
AcDbEntity
  8
PolarPattern002
  6
ByLayer
 62
  256
370
   -1
100
AcDbCircle
 10
-35.84000000000003
 20
-180.17
 40
40.25
100
AcDbArc
 50
49.2109
 51
108.288
  0
LINE
  5
525
100
AcDbEntity
  8
PolarPattern002
  6
ByLayer
 62
  256
370
   -1
100
AcDbLine
 10
-9.545600000000036
 20
-149.696
 11
-9.545600000000036
 21
-149.696
  0
ARC
  5
526
100
AcDbEntity
  8
PolarPattern002
  6
ByLayer
 62
  256
370
   -1
100
AcDbCircle
 10
35.83619999999996
 20
-180.171
 40
40.25
100
AcDbArc
 50
71.7109
 51
130.788
  0
LINE
  5
527
100
AcDbEntity
  8
PolarPattern002
  6
ByLayer
 62
  256
370
   -1
100
AcDbLine
 10
9.54246999999998
 20
-149.696
 11
9.54246999999998
 21
-149.696
  0
ARC
  5
528
100
AcDbEntity
  8
PolarPattern002
  6
ByLayer
 62
  256
370
   -1
100
AcDbCircle
 10
35.83619999999996
 20
-180.171
 40
40.25
100
AcDbArc
 50
71.7109
 51
130.788
  0
LINE
  5
529
100
AcDbEntity
  8
PolarPattern002
  6
ByLayer
 62
  256
370
   -1
100
AcDbLine
 10
48.46720000000005
 20
-141.954
 11
48.46720000000005
 21
-141.954
  0
ARC
  5
52A
100
AcDbEntity
  8
PolarPattern002
  6
ByLayer
 62
  256
370
   -1
100
AcDbCircle
 10
0
 20
0
 40
150
100
AcDbArc
 50
-93.6486
 51
-93.24850000000001
  0
LINE
  5
52B
100
AcDbEntity
  8
PolarPattern002
  6
ByLayer
 62
  256
370
   -1
100
AcDbLine
 10
-9.545600000000036
 20
-149.696
 11
-9.545600000000036
 21
-149.696
  0
ARC
  5
52C
100
AcDbEntity
  8
PolarPattern002
  6
ByLayer
 62
  256
370
   -1
100
AcDbCircle
 10
0
 20
0
 40
150
100
AcDbArc
 50
-93.6486
 51
-93.24850000000001
  0
LINE
  5
52D
100
AcDbEntity
  8
PolarPattern002
  6
ByLayer
 62
  256
370
   -1
100
AcDbLine
 10
-8.5
 20
-149.759
 11
-8.5
 21
-149.759
  0
ARC
  5
52E
100
AcDbEntity
  8
PolarPattern002
  6
ByLayer
 62
  256
370
   -1
100
AcDbCircle
 10
0
 20
0
 40
150
100
AcDbArc
 50
-86.75149999999999
 51
-86.3526
  0
LINE
  5
52F
100
AcDbEntity
  8
PolarPattern002
  6
ByLayer
 62
  256
370
   -1
100
AcDbLine
 10
8.5
 20
-149.759
 11
8.5
 21
-149.759
  0
ARC
  5
530
100
AcDbEntity
  8
PolarPattern002
  6
ByLayer
 62
  256
370
   -1
100
AcDbCircle
 10
0
 20
0
 40
150
100
AcDbArc
 50
-86.75149999999999
 51
-86.3526
  0
LINE
  5
531
100
AcDbEntity
  8
PolarPattern002
  6
ByLayer
 62
  256
370
   -1
100
AcDbLine
 10
9.54246999999998
 20
-149.696
 11
9.54246999999998
 21
-149.696
  0
LINE
  5
532
100
AcDbEntity
  8
PolarPattern002
  6
ByLayer
 62
  256
370
   -1
100
AcDbLine
 10
-8.5
 20
-125
 11
-8.5
 21
-149.759
  0
LINE
  5
533
100
AcDbEntity
  8
PolarPattern002
  6
ByLayer
 62
  256
370
   -1
100
AcDbLine
 10
-8.5
 20
-149.759
 11
-8.5
 21
-149.759
  0
LINE
  5
534
100
AcDbEntity
  8
PolarPattern002
  6
ByLayer
 62
  256
370
   -1
100
AcDbLine
 10
-8.5
 20
-125
 11
-8.5
 21
-149.759
  0
LINE
  5
535
100
AcDbEntity
  8
PolarPattern002
  6
ByLayer
 62
  256
370
   -1
100
AcDbLine
 10
-8.5
 20
-125
 11
-8.5
 21
-125
  0
LINE
  5
536
100
AcDbEntity
  8
PolarPattern002
  6
ByLayer
 62
  256
370
   -1
100
AcDbLine
 10
8.5
 20
-125
 11
8.5
 21
-149.759
  0
LINE
  5
537
100
AcDbEntity
  8
PolarPattern002
  6
ByLayer
 62
  256
370
   -1
100
AcDbLine
 10
8.5
 20
-149.759
 11
8.5
 21
-149.759
  0
LINE
  5
538
100
AcDbEntity
  8
PolarPattern002
  6
ByLayer
 62
  256
370
   -1
100
AcDbLine
 10
8.5
 20
-125
 11
8.5
 21
-149.759
  0
LINE
  5
539
100
AcDbEntity
  8
PolarPattern002
  6
ByLayer
 62
  256
370
   -1
100
AcDbLine
 10
8.5
 20
-125
 11
8.5
 21
-125
  0
ARC
  5
53A
100
AcDbEntity
  8
PolarPattern002
  6
ByLayer
 62
  256
370
   -1
100
AcDbCircle
 10
0
 20
-125
 40
8.5
100
AcDbArc
 50
9.57908e-14
 51
-180
  0
LINE
  5
53B
100
AcDbEntity
  8
PolarPattern002
  6
ByLayer
 62
  256
370
   -1
100
AcDbLine
 10
-8.5
 20
-125
 11
-8.5
 21
-125
  0
ARC
  5
53C
100
AcDbEntity
  8
PolarPattern002
  6
ByLayer
 62
  256
370
   -1
100
AcDbCircle
 10
0
 20
-125
 40
8.5
100
AcDbArc
 50
9.57908e-14
 51
-180
  0
LINE
  5
53D
100
AcDbEntity
  8
PolarPattern002
  6
ByLayer
 62
  256
370
   -1
100
AcDbLine
 10
8.5
 20
-125
 11
8.5
 21
-125
  0
CIRCLE
  5
53E
100
AcDbEntity
  8
PolarPattern002
  6
ByLayer
 62
  256
370
   -1
100
AcDbCircle
 10
-56.56849999999997
 20
-56.56849999999997
 40
5.05
  0
LINE
  5
53F
100
AcDbEntity
  8
PolarPattern002
  6
ByLayer
 62
  256
370
   -1
100
AcDbLine
 10
-60.13940000000002
 20
-52.99770000000001
 11
-60.13940000000002
 21
-52.99770000000001
  0
CIRCLE
  5
540
100
AcDbEntity
  8
PolarPattern002
  6
ByLayer
 62
  256
370
   -1
100
AcDbCircle
 10
-56.56849999999997
 20
-56.56849999999997
 40
5.05
  0
LINE
  5
541
100
AcDbEntity
  8
PolarPattern002
  6
ByLayer
 62
  256
370
   -1
100
AcDbLine
 10
-60.13940000000002
 20
-52.99770000000001
 11
-60.13940000000002
 21
-52.99770000000001
  0
CIRCLE
  5
542
100
AcDbEntity
  8
PolarPattern002
  6
ByLayer
 62
  256
370
   -1
100
AcDbCircle
 10
0
 20
-80
 40
5.05
  0
LINE
  5
543
100
AcDbEntity
  8
PolarPattern002
  6
ByLayer
 62
  256
370
   -1
100
AcDbLine
 10
-5.049999999999955
 20
-80
 11
-5.049999999999955
 21
-80
  0
CIRCLE
  5
544
100
AcDbEntity
  8
PolarPattern002
  6
ByLayer
 62
  256
370
   -1
100
AcDbCircle
 10
0
 20
-80
 40
5.05
  0
LINE
  5
545
100
AcDbEntity
  8
PolarPattern002
  6
ByLayer
 62
  256
370
   -1
100
AcDbLine
 10
-5.049999999999955
 20
-80
 11
-5.049999999999955
 21
-80
  0
CIRCLE
  5
546
100
AcDbEntity
  8
PolarPattern002
  6
ByLayer
 62
  256
370
   -1
100
AcDbCircle
 10
56.56849999999997
 20
-56.56849999999997
 40
5.05
  0
LINE
  5
547
100
AcDbEntity
  8
PolarPattern002
  6
ByLayer
 62
  256
370
   -1
100
AcDbLine
 10
52.99770000000001
 20
-60.13940000000002
 11
52.99770000000001
 21
-60.13940000000002
  0
CIRCLE
  5
548
100
AcDbEntity
  8
PolarPattern002
  6
ByLayer
 62
  256
370
   -1
100
AcDbCircle
 10
56.56849999999997
 20
-56.56849999999997
 40
5.05
  0
LINE
  5
549
100
AcDbEntity
  8
PolarPattern002
  6
ByLayer
 62
  256
370
   -1
100
AcDbLine
 10
52.99770000000001
 20
-60.13940000000002
 11
52.99770000000001
 21
-60.13940000000002
  0
CIRCLE
  5
54A
100
AcDbEntity
  8
PolarPattern002
  6
ByLayer
 62
  256
370
   -1
100
AcDbCircle
 10
80
 20
0
 40
5.05
  0
LINE
  5
54B
100
AcDbEntity
  8
PolarPattern002
  6
ByLayer
 62
  256
370
   -1
100
AcDbLine
 10
80
 20
-5.050000000000011
 11
80
 21
-5.050000000000011
  0
CIRCLE
  5
54C
100
AcDbEntity
  8
PolarPattern002
  6
ByLayer
 62
  256
370
   -1
100
AcDbCircle
 10
80
 20
0
 40
5.05
  0
LINE
  5
54D
100
AcDbEntity
  8
PolarPattern002
  6
ByLayer
 62
  256
370
   -1
100
AcDbLine
 10
80
 20
-5.050000000000011
 11
80
 21
-5.050000000000011
  0
CIRCLE
  5
54E
100
AcDbEntity
  8
PolarPattern002
  6
ByLayer
 62
  256
370
   -1
100
AcDbCircle
 10
-80
 20
0
 40
5.05
  0
LINE
  5
54F
100
AcDbEntity
  8
PolarPattern002
  6
ByLayer
 62
  256
370
   -1
100
AcDbLine
 10
-80
 20
5.050000000000011
 11
-80
 21
5.050000000000011
  0
CIRCLE
  5
550
100
AcDbEntity
  8
PolarPattern002
  6
ByLayer
 62
  256
370
   -1
100
AcDbCircle
 10
-80
 20
0
 40
5.05
  0
LINE
  5
551
100
AcDbEntity
  8
PolarPattern002
  6
ByLayer
 62
  256
370
   -1
100
AcDbLine
 10
-80
 20
5.050000000000011
 11
-80
 21
5.050000000000011
  0
CIRCLE
  5
552
100
AcDbEntity
  8
PolarPattern002
  6
ByLayer
 62
  256
370
   -1
100
AcDbCircle
 10
-56.56849999999997
 20
56.56849999999997
 40
5.05
  0
LINE
  5
553
100
AcDbEntity
  8
PolarPattern002
  6
ByLayer
 62
  256
370
   -1
100
AcDbLine
 10
-52.99770000000001
 20
60.13940000000002
 11
-52.99770000000001
 21
60.13940000000002
  0
CIRCLE
  5
554
100
AcDbEntity
  8
PolarPattern002
  6
ByLayer
 62
  256
370
   -1
100
AcDbCircle
 10
-56.56849999999997
 20
56.56849999999997
 40
5.05
  0
LINE
  5
555
100
AcDbEntity
  8
PolarPattern002
  6
ByLayer
 62
  256
370
   -1
100
AcDbLine
 10
-52.99770000000001
 20
60.13940000000002
 11
-52.99770000000001
 21
60.13940000000002
  0
LINE
  5
556
100
AcDbEntity
  8
PolarPattern002
  6
ByLayer
 62
  256
370
   -1
100
AcDbLine
 10
60
 20
0
 11
60
 21
0
  0
LINE
  5
557
100
AcDbEntity
  8
PolarPattern002
  6
ByLayer
 62
  256
370
   -1
100
AcDbLine
 10
60
 20
0
 11
60
 21
0
  0
CIRCLE
  5
558
100
AcDbEntity
  8
PolarPattern002
  6
ByLayer
 62
  256
370
   -1
100
AcDbCircle
 10
0
 20
0
 40
60
  0
CIRCLE
  5
559
100
AcDbEntity
  8
PolarPattern002
  6
ByLayer
 62
  256
370
   -1
100
AcDbCircle
 10
0
 20
0
 40
60
  0
CIRCLE
  5
55A
100
AcDbEntity
  8
PolarPattern002
  6
ByLayer
 62
  256
370
   -1
100
AcDbCircle
 10
0
 20
80
 40
5.05
  0
LINE
  5
55B
100
AcDbEntity
  8
PolarPattern002
  6
ByLayer
 62
  256
370
   -1
100
AcDbLine
 10
5.049999999999955
 20
80
 11
5.049999999999955
 21
80
  0
CIRCLE
  5
55C
100
AcDbEntity
  8
PolarPattern002
  6
ByLayer
 62
  256
370
   -1
100
AcDbCircle
 10
0
 20
80
 40
5.05
  0
LINE
  5
55D
100
AcDbEntity
  8
PolarPattern002
  6
ByLayer
 62
  256
370
   -1
100
AcDbLine
 10
5.049999999999955
 20
80
 11
5.049999999999955
 21
80
  0
CIRCLE
  5
55E
100
AcDbEntity
  8
PolarPattern002
  6
ByLayer
 62
  256
370
   -1
100
AcDbCircle
 10
56.56849999999997
 20
56.56849999999997
 40
5.05
  0
LINE
  5
55F
100
AcDbEntity
  8
PolarPattern002
  6
ByLayer
 62
  256
370
   -1
100
AcDbLine
 10
60.13940000000002
 20
52.99770000000001
 11
60.13940000000002
 21
52.99770000000001
  0
CIRCLE
  5
560
100
AcDbEntity
  8
PolarPattern002
  6
ByLayer
 62
  256
370
   -1
100
AcDbCircle
 10
56.56849999999997
 20
56.56849999999997
 40
5.05
  0
LINE
  5
561
100
AcDbEntity
  8
PolarPattern002
  6
ByLayer
 62
  256
370
   -1
100
AcDbLine
 10
60.13940000000002
 20
52.99770000000001
 11
60.13940000000002
 21
52.99770000000001
  0
ENDBLK
  5
60
330
5E
100
AcDbEntity
  8
0
100
AcDbBlockEnd
  0
BLOCK
  5
62
330
61
100
AcDbEntity
  8
0
100
AcDbBlockBegin
  2
Croce di Malta-BodyPolarPattern002-0
 70
    0
 10
0
 20
0
  3
Croce di Malta-BodyPolarPattern002-0
  1

  0
ARC
  5
562
100
AcDbEntity
  8
PolarPattern002
  6
ByLayer
 62
  256
370
   -1
100
AcDbCircle
 10
0
 20
0
 40
150
100
AcDbArc
 50
3.2485
 51
3.64742
  0
LINE
  5
563
100
AcDbEntity
  8
PolarPattern002
  6
ByLayer
 62
  256
370
   -1
100
AcDbLine
 10
149.6959999999999
 20
9.542470000000002
 11
149.6959999999999
 21
9.542470000000002
  0
ARC
  5
564
100
AcDbEntity
  8
PolarPattern002
  6
ByLayer
 62
  256
370
   -1
100
AcDbCircle
 10
0
 20
0
 40
150
100
AcDbArc
 50
3.2485
 51
3.64742
  0
LINE
  5
565
100
AcDbEntity
  8
PolarPattern002
  6
ByLayer
 62
  256
370
   -1
100
AcDbLine
 10
149.759
 20
8.5
 11
149.759
 21
8.5
  0
ARC
  5
566
100
AcDbEntity
  8
PolarPattern002
  6
ByLayer
 62
  256
370
   -1
100
AcDbCircle
 10
0
 20
125
 40
8.5
100
AcDbArc
 50
-180
 51
8.23801e-12
  0
LINE
  5
567
100
AcDbEntity
  8
PolarPattern002
  6
ByLayer
 62
  256
370
   -1
100
AcDbLine
 10
-8.5
 20
125
 11
-8.5
 21
149.759
  0
LINE
  5
568
100
AcDbEntity
  8
PolarPattern002
  6
ByLayer
 62
  256
370
   -1
100
AcDbLine
 10
8.5
 20
125
 11
8.5
 21
149.759
  0
ARC
  5
569
100
AcDbEntity
  8
PolarPattern002
  6
ByLayer
 62
  256
370
   -1
100
AcDbCircle
 10
0
 20
0
 40
150
100
AcDbArc
 50
93.24850000000001
 51
93.6474
  0
ARC
  5
56A
100
AcDbEntity
  8
PolarPattern002
  6
ByLayer
 62
  256
370
   -1
100
AcDbCircle
 10
0
 20
0
 40
150
100
AcDbArc
 50
86.3514
 51
86.75149999999999
  0
ARC
  5
56B
100
AcDbEntity
  8
PolarPattern002
  6
ByLayer
 62
  256
370
   -1
100
AcDbCircle
 10
-35.83619999999996
 20
180.171
 40
40.25
100
AcDbArc
 50
-108.289
 51
-49.2121
  0
ARC
  5
56C
100
AcDbEntity
  8
PolarPattern002
  6
ByLayer
 62
  256
370
   -1
100
AcDbCircle
 10
35.84000000000003
 20
180.17
 40
40.25
100
AcDbArc
 50
-130.789
 51
-71.71210000000001
  0
ARC
  5
56D
100
AcDbEntity
  8
PolarPattern002
  6
ByLayer
 62
  256
370
   -1
100
AcDbCircle
 10
0
 20
0
 40
150
100
AcDbArc
 50
108.851
 51
109.251
  0
ARC
  5
56E
100
AcDbEntity
  8
PolarPattern002
  6
ByLayer
 62
  256
370
   -1
100
AcDbCircle
 10
0
 20
0
 40
150
100
AcDbArc
 50
70.74850000000001
 51
71.1474
  0
LINE
  5
56F
100
AcDbEntity
  8
PolarPattern002
  6
ByLayer
 62
  256
370
   -1
100
AcDbLine
 10
-39.98249999999996
 20
118.738
 11
-49.45730000000003
 21
141.612
  0
LINE
  5
570
100
AcDbEntity
  8
PolarPattern002
  6
ByLayer
 62
  256
370
   -1
100
AcDbLine
 10
39.98249999999996
 20
118.738
 11
49.45730000000003
 21
141.612
  0
ARC
  5
571
100
AcDbEntity
  8
PolarPattern002
  6
ByLayer
 62
  256
370
   -1
100
AcDbCircle
 10
-47.83540000000005
 20
115.485
 40
8.5
100
AcDbArc
 50
-157.5
 51
22.5
  0
ARC
  5
572
100
AcDbEntity
  8
PolarPattern002
  6
ByLayer
 62
  256
370
   -1
100
AcDbCircle
 10
47.83540000000005
 20
115.485
 40
8.5
100
AcDbArc
 50
157.5
 51
-22.5
  0
LINE
  5
573
100
AcDbEntity
  8
PolarPattern002
  6
ByLayer
 62
  256
370
   -1
100
AcDbLine
 10
-55.6884
 20
112.232
 11
-65.16330000000005
 21
135.106
  0
LINE
  5
574
100
AcDbEntity
  8
PolarPattern002
  6
ByLayer
 62
  256
370
   -1
100
AcDbLine
 10
55.6884
 20
112.232
 11
65.16329999999994
 21
135.106
  0
ARC
  5
575
100
AcDbEntity
  8
PolarPattern002
  6
ByLayer
 62
  256
370
   -1
100
AcDbCircle
 10
0
 20
0
 40
150
100
AcDbArc
 50
115.749
 51
116.147
  0
ARC
  5
576
100
AcDbEntity
  8
PolarPattern002
  6
ByLayer
 62
  256
370
   -1
100
AcDbCircle
 10
0
 20
0
 40
150
100
AcDbArc
 50
63.8514
 51
64.25149999999999
  0
ARC
  5
577
100
AcDbEntity
  8
PolarPattern002
  6
ByLayer
 62
  256
370
   -1
100
AcDbCircle
 10
-102.057
 20
152.742
 40
40.25
100
AcDbArc
 50
-85.7891
 51
-26.7121
  0
ARC
  5
578
100
AcDbEntity
  8
PolarPattern002
  6
ByLayer
 62
  256
370
   -1
100
AcDbCircle
 10
102.0599999999999
 20
152.74
 40
40.25
100
AcDbArc
 50
-153.289
 51
-94.21210000000001
  0
ARC
  5
579
100
AcDbEntity
  8
PolarPattern002
  6
ByLayer
 62
  256
370
   -1
100
AcDbCircle
 10
0
 20
0
 40
150
100
AcDbArc
 50
131.351
 51
131.751
  0
ARC
  5
57A
100
AcDbEntity
  8
PolarPattern002
  6
ByLayer
 62
  256
370
   -1
100
AcDbCircle
 10
0
 20
0
 40
150
100
AcDbArc
 50
48.2485
 51
48.6474
  0
LINE
  5
57B
100
AcDbEntity
  8
PolarPattern002
  6
ByLayer
 62
  256
370
   -1
100
AcDbLine
 10
-82.37789999999995
 20
94.39879999999999
 11
-99.88519999999994
 21
111.906
  0
LINE
  5
57C
100
AcDbEntity
  8
PolarPattern002
  6
ByLayer
 62
  256
370
   -1
100
AcDbLine
 10
82.37789999999995
 20
94.39879999999999
 11
99.88519999999994
 21
111.906
  0
ARC
  5
57D
100
AcDbEntity
  8
PolarPattern002
  6
ByLayer
 62
  256
370
   -1
100
AcDbCircle
 10
-88.38829999999996
 20
88.3883
 40
8.5
100
AcDbArc
 50
-135
 51
45
  0
ARC
  5
57E
100
AcDbEntity
  8
PolarPattern002
  6
ByLayer
 62
  256
370
   -1
100
AcDbCircle
 10
88.38830000000007
 20
88.3883
 40
8.5
100
AcDbArc
 50
135
 51
-45
  0
LINE
  5
57F
100
AcDbEntity
  8
PolarPattern002
  6
ByLayer
 62
  256
370
   -1
100
AcDbLine
 10
-94.39879999999994
 20
82.3779
 11
-111.9059999999999
 21
99.8852
  0
LINE
  5
580
100
AcDbEntity
  8
PolarPattern002
  6
ByLayer
 62
  256
370
   -1
100
AcDbLine
 10
94.39879999999994
 20
82.3779
 11
111.9059999999999
 21
99.8852
  0
ARC
  5
581
100
AcDbEntity
  8
PolarPattern002
  6
ByLayer
 62
  256
370
   -1
100
AcDbCircle
 10
0
 20
0
 40
150
100
AcDbArc
 50
138.249
 51
138.647
  0
ARC
  5
582
100
AcDbEntity
  8
PolarPattern002
  6
ByLayer
 62
  256
370
   -1
100
AcDbCircle
 10
0
 20
0
 40
150
100
AcDbArc
 50
41.3514
 51
41.7515
  0
ARC
  5
583
100
AcDbEntity
  8
PolarPattern002
  6
ByLayer
 62
  256
370
   -1
100
AcDbCircle
 10
-152.74
 20
102.06
 40
40.25
100
AcDbArc
 50
-63.2891
 51
-4.21206
  0
ARC
  5
584
100
AcDbEntity
  8
PolarPattern002
  6
ByLayer
 62
  256
370
   -1
100
AcDbCircle
 10
152.742
 20
102.057
 40
40.25
100
AcDbArc
 50
-175.789
 51
-116.712
  0
ARC
  5
585
100
AcDbEntity
  8
PolarPattern002
  6
ByLayer
 62
  256
370
   -1
100
AcDbCircle
 10
0
 20
0
 40
150
100
AcDbArc
 50
153.851
 51
154.251
  0
ARC
  5
586
100
AcDbEntity
  8
PolarPattern002
  6
ByLayer
 62
  256
370
   -1
100
AcDbCircle
 10
0
 20
0
 40
150
100
AcDbArc
 50
25.7485
 51
26.1474
  0
LINE
  5
587
100
AcDbEntity
  8
PolarPattern002
  6
ByLayer
 62
  256
370
   -1
100
AcDbLine
 10
-112.232
 20
55.6884
 11
-135.106
 21
65.16330000000001
  0
LINE
  5
588
100
AcDbEntity
  8
PolarPattern002
  6
ByLayer
 62
  256
370
   -1
100
AcDbLine
 10
112.232
 20
55.6884
 11
135.106
 21
65.16330000000001
  0
ARC
  5
589
100
AcDbEntity
  8
PolarPattern002
  6
ByLayer
 62
  256
370
   -1
100
AcDbCircle
 10
-115.485
 20
47.83539999999999
 40
8.5
100
AcDbArc
 50
-112.5
 51
67.5
  0
ARC
  5
58A
100
AcDbEntity
  8
PolarPattern002
  6
ByLayer
 62
  256
370
   -1
100
AcDbCircle
 10
115.4849999999999
 20
47.83539999999999
 40
8.5
100
AcDbArc
 50
112.5
 51
-67.5
  0
LINE
  5
58B
100
AcDbEntity
  8
PolarPattern002
  6
ByLayer
 62
  256
370
   -1
100
AcDbLine
 10
-118.7380000000001
 20
39.9825
 11
-141.612
 21
49.4573
  0
LINE
  5
58C
100
AcDbEntity
  8
PolarPattern002
  6
ByLayer
 62
  256
370
   -1
100
AcDbLine
 10
118.7380000000001
 20
39.9825
 11
141.6120000000001
 21
49.4573
  0
ARC
  5
58D
100
AcDbEntity
  8
PolarPattern002
  6
ByLayer
 62
  256
370
   -1
100
AcDbCircle
 10
0
 20
0
 40
150
100
AcDbArc
 50
160.749
 51
161.147
  0
ARC
  5
58E
100
AcDbEntity
  8
PolarPattern002
  6
ByLayer
 62
  256
370
   -1
100
AcDbCircle
 10
0
 20
0
 40
150
100
AcDbArc
 50
18.8514
 51
19.2515
  0
ARC
  5
58F
100
AcDbEntity
  8
PolarPattern002
  6
ByLayer
 62
  256
370
   -1
100
AcDbCircle
 10
-180.17
 20
35.84
 40
40.25
100
AcDbArc
 50
-40.7891
 51
18.2879
  0
ARC
  5
590
100
AcDbEntity
  8
PolarPattern002
  6
ByLayer
 62
  256
370
   -1
100
AcDbCircle
 10
180.171
 20
35.83619999999999
 40
40.25
100
AcDbArc
 50
161.711
 51
-139.212
  0
ARC
  5
591
100
AcDbEntity
  8
PolarPattern002
  6
ByLayer
 62
  256
370
   -1
100
AcDbCircle
 10
0
 20
0
 40
150
100
AcDbArc
 50
176.351
 51
176.751
  0
ARC
  5
592
100
AcDbEntity
  8
PolarPattern002
  6
ByLayer
 62
  256
370
   -1
100
AcDbCircle
 10
0
 20
0
 40
150
100
AcDbArc
 50
3.2485
 51
3.64742
  0
LINE
  5
593
100
AcDbEntity
  8
PolarPattern002
  6
ByLayer
 62
  256
370
   -1
100
AcDbLine
 10
-125
 20
8.5
 11
-149.759
 21
8.5
  0
LINE
  5
594
100
AcDbEntity
  8
PolarPattern002
  6
ByLayer
 62
  256
370
   -1
100
AcDbLine
 10
125
 20
8.5
 11
149.759
 21
8.5
  0
ARC
  5
595
100
AcDbEntity
  8
PolarPattern002
  6
ByLayer
 62
  256
370
   -1
100
AcDbCircle
 10
-125
 20
1.4210854715202e-14
 40
8.5
100
AcDbArc
 50
-90
 51
90
  0
ARC
  5
596
100
AcDbEntity
  8
PolarPattern002
  6
ByLayer
 62
  256
370
   -1
100
AcDbCircle
 10
125
 20
-2.842170943040401e-14
 40
8.5
100
AcDbArc
 50
90
 51
-90
  0
LINE
  5
597
100
AcDbEntity
  8
PolarPattern002
  6
ByLayer
 62
  256
370
   -1
100
AcDbLine
 10
-125
 20
-8.5
 11
-149.759
 21
-8.5
  0
LINE
  5
598
100
AcDbEntity
  8
PolarPattern002
  6
ByLayer
 62
  256
370
   -1
100
AcDbLine
 10
125
 20
-8.5
 11
149.759
 21
-8.5
  0
ARC
  5
599
100
AcDbEntity
  8
PolarPattern002
  6
ByLayer
 62
  256
370
   -1
100
AcDbCircle
 10
0
 20
0
 40
150
100
AcDbArc
 50
-176.751
 51
-176.353
  0
ARC
  5
59A
100
AcDbEntity
  8
PolarPattern002
  6
ByLayer
 62
  256
370
   -1
100
AcDbCircle
 10
0
 20
0
 40
150
100
AcDbArc
 50
-3.64862
 51
-3.2485
  0
ARC
  5
59B
100
AcDbEntity
  8
PolarPattern002
  6
ByLayer
 62
  256
370
   -1
100
AcDbCircle
 10
-180.171
 20
-35.8362
 40
40.25
100
AcDbArc
 50
-18.2891
 51
40.7879
  0
ARC
  5
59C
100
AcDbEntity
  8
PolarPattern002
  6
ByLayer
 62
  256
370
   -1
100
AcDbCircle
 10
180.1700000000001
 20
-35.84
 40
40.25
100
AcDbArc
 50
139.211
 51
-161.712
  0
ARC
  5
59D
100
AcDbEntity
  8
PolarPattern002
  6
ByLayer
 62
  256
370
   -1
100
AcDbCircle
 10
0
 20
0
 40
150
100
AcDbArc
 50
-161.149
 51
-160.749
  0
ARC
  5
59E
100
AcDbEntity
  8
PolarPattern002
  6
ByLayer
 62
  256
370
   -1
100
AcDbCircle
 10
0
 20
0
 40
150
100
AcDbArc
 50
-19.2515
 51
-18.8526
  0
LINE
  5
59F
100
AcDbEntity
  8
PolarPattern002
  6
ByLayer
 62
  256
370
   -1
100
AcDbLine
 10
-118.7380000000001
 20
-39.9825
 11
-141.612
 21
-49.4573
  0
LINE
  5
5A0
100
AcDbEntity
  8
PolarPattern002
  6
ByLayer
 62
  256
370
   -1
100
AcDbLine
 10
118.7380000000001
 20
-39.9825
 11
141.6120000000001
 21
-49.4573
  0
ARC
  5
5A1
100
AcDbEntity
  8
PolarPattern002
  6
ByLayer
 62
  256
370
   -1
100
AcDbCircle
 10
-115.485
 20
-47.8354
 40
8.5
100
AcDbArc
 50
-67.5
 51
112.5
  0
ARC
  5
5A2
100
AcDbEntity
  8
PolarPattern002
  6
ByLayer
 62
  256
370
   -1
100
AcDbCircle
 10
115.4849999999999
 20
-47.8354
 40
8.5
100
AcDbArc
 50
67.5
 51
-112.5
  0
LINE
  5
5A3
100
AcDbEntity
  8
PolarPattern002
  6
ByLayer
 62
  256
370
   -1
100
AcDbLine
 10
-112.232
 20
-55.6884
 11
-135.106
 21
-65.16330000000001
  0
LINE
  5
5A4
100
AcDbEntity
  8
PolarPattern002
  6
ByLayer
 62
  256
370
   -1
100
AcDbLine
 10
112.232
 20
-55.6884
 11
135.106
 21
-65.16330000000001
  0
ARC
  5
5A5
100
AcDbEntity
  8
PolarPattern002
  6
ByLayer
 62
  256
370
   -1
100
AcDbCircle
 10
0
 20
0
 40
150
100
AcDbArc
 50
-154.251
 51
-153.853
  0
ARC
  5
5A6
100
AcDbEntity
  8
PolarPattern002
  6
ByLayer
 62
  256
370
   -1
100
AcDbCircle
 10
0
 20
0
 40
150
100
AcDbArc
 50
-26.1486
 51
-25.7485
  0
ARC
  5
5A7
100
AcDbEntity
  8
PolarPattern002
  6
ByLayer
 62
  256
370
   -1
100
AcDbCircle
 10
-152.742
 20
-102.057
 40
40.25
100
AcDbArc
 50
4.21086
 51
63.2879
  0
ARC
  5
5A8
100
AcDbEntity
  8
PolarPattern002
  6
ByLayer
 62
  256
370
   -1
100
AcDbCircle
 10
152.74
 20
-102.06
 40
40.25
100
AcDbArc
 50
116.711
 51
175.788
  0
ARC
  5
5A9
100
AcDbEntity
  8
PolarPattern002
  6
ByLayer
 62
  256
370
   -1
100
AcDbCircle
 10
0
 20
0
 40
150
100
AcDbArc
 50
-138.649
 51
-138.249
  0
ARC
  5
5AA
100
AcDbEntity
  8
PolarPattern002
  6
ByLayer
 62
  256
370
   -1
100
AcDbCircle
 10
0
 20
0
 40
150
100
AcDbArc
 50
-41.7515
 51
-41.3526
  0
LINE
  5
5AB
100
AcDbEntity
  8
PolarPattern002
  6
ByLayer
 62
  256
370
   -1
100
AcDbLine
 10
-94.39879999999994
 20
-82.3779
 11
-111.9059999999999
 21
-99.8852
  0
LINE
  5
5AC
100
AcDbEntity
  8
PolarPattern002
  6
ByLayer
 62
  256
370
   -1
100
AcDbLine
 10
94.39879999999994
 20
-82.3779
 11
111.9059999999999
 21
-99.8852
  0
ARC
  5
5AD
100
AcDbEntity
  8
PolarPattern002
  6
ByLayer
 62
  256
370
   -1
100
AcDbCircle
 10
-88.38829999999996
 20
-88.3883
 40
8.5
100
AcDbArc
 50
-45
 51
135
  0
ARC
  5
5AE
100
AcDbEntity
  8
PolarPattern002
  6
ByLayer
 62
  256
370
   -1
100
AcDbCircle
 10
88.38830000000007
 20
-88.3883
 40
8.5
100
AcDbArc
 50
45
 51
-135
  0
LINE
  5
5AF
100
AcDbEntity
  8
PolarPattern002
  6
ByLayer
 62
  256
370
   -1
100
AcDbLine
 10
-82.37789999999995
 20
-94.39879999999999
 11
-99.88519999999994
 21
-111.906
  0
LINE
  5
5B0
100
AcDbEntity
  8
PolarPattern002
  6
ByLayer
 62
  256
370
   -1
100
AcDbLine
 10
82.37789999999995
 20
-94.39879999999999
 11
99.88519999999994
 21
-111.906
  0
ARC
  5
5B1
100
AcDbEntity
  8
PolarPattern002
  6
ByLayer
 62
  256
370
   -1
100
AcDbCircle
 10
0
 20
0
 40
150
100
AcDbArc
 50
-131.751
 51
-131.353
  0
ARC
  5
5B2
100
AcDbEntity
  8
PolarPattern002
  6
ByLayer
 62
  256
370
   -1
100
AcDbCircle
 10
0
 20
0
 40
150
100
AcDbArc
 50
-48.6486
 51
-48.2485
  0
ARC
  5
5B3
100
AcDbEntity
  8
PolarPattern002
  6
ByLayer
 62
  256
370
   -1
100
AcDbCircle
 10
-102.0599999999999
 20
-152.74
 40
40.25
100
AcDbArc
 50
26.7109
 51
85.78789999999999
  0
ARC
  5
5B4
100
AcDbEntity
  8
PolarPattern002
  6
ByLayer
 62
  256
370
   -1
100
AcDbCircle
 10
102.057
 20
-152.742
 40
40.25
100
AcDbArc
 50
94.2109
 51
153.288
  0
ARC
  5
5B5
100
AcDbEntity
  8
PolarPattern002
  6
ByLayer
 62
  256
370
   -1
100
AcDbCircle
 10
0
 20
0
 40
150
100
AcDbArc
 50
-116.149
 51
-115.749
  0
ARC
  5
5B6
100
AcDbEntity
  8
PolarPattern002
  6
ByLayer
 62
  256
370
   -1
100
AcDbCircle
 10
0
 20
0
 40
150
100
AcDbArc
 50
-64.25149999999999
 51
-63.8526
  0
LINE
  5
5B7
100
AcDbEntity
  8
PolarPattern002
  6
ByLayer
 62
  256
370
   -1
100
AcDbLine
 10
-55.6884
 20
-112.232
 11
-65.16330000000005
 21
-135.106
  0
LINE
  5
5B8
100
AcDbEntity
  8
PolarPattern002
  6
ByLayer
 62
  256
370
   -1
100
AcDbLine
 10
55.6884
 20
-112.232
 11
65.16329999999994
 21
-135.106
  0
ARC
  5
5B9
100
AcDbEntity
  8
PolarPattern002
  6
ByLayer
 62
  256
370
   -1
100
AcDbCircle
 10
-47.83540000000005
 20
-115.485
 40
8.5
100
AcDbArc
 50
-22.5
 51
157.5
  0
ARC
  5
5BA
100
AcDbEntity
  8
PolarPattern002
  6
ByLayer
 62
  256
370
   -1
100
AcDbCircle
 10
47.83540000000005
 20
-115.485
 40
8.5
100
AcDbArc
 50
22.5
 51
-157.5
  0
LINE
  5
5BB
100
AcDbEntity
  8
PolarPattern002
  6
ByLayer
 62
  256
370
   -1
100
AcDbLine
 10
-39.98249999999996
 20
-118.738
 11
-49.45730000000003
 21
-141.612
  0
LINE
  5
5BC
100
AcDbEntity
  8
PolarPattern002
  6
ByLayer
 62
  256
370
   -1
100
AcDbLine
 10
39.98249999999996
 20
-118.738
 11
49.45730000000003
 21
-141.612
  0
ARC
  5
5BD
100
AcDbEntity
  8
PolarPattern002
  6
ByLayer
 62
  256
370
   -1
100
AcDbCircle
 10
0
 20
0
 40
150
100
AcDbArc
 50
-109.251
 51
-108.853
  0
ARC
  5
5BE
100
AcDbEntity
  8
PolarPattern002
  6
ByLayer
 62
  256
370
   -1
100
AcDbCircle
 10
0
 20
0
 40
150
100
AcDbArc
 50
-71.1486
 51
-70.74850000000001
  0
ARC
  5
5BF
100
AcDbEntity
  8
PolarPattern002
  6
ByLayer
 62
  256
370
   -1
100
AcDbCircle
 10
-35.84000000000003
 20
-180.17
 40
40.25
100
AcDbArc
 50
49.2109
 51
108.288
  0
ARC
  5
5C0
100
AcDbEntity
  8
PolarPattern002
  6
ByLayer
 62
  256
370
   -1
100
AcDbCircle
 10
35.83619999999996
 20
-180.171
 40
40.25
100
AcDbArc
 50
71.7109
 51
130.788
  0
ARC
  5
5C1
100
AcDbEntity
  8
PolarPattern002
  6
ByLayer
 62
  256
370
   -1
100
AcDbCircle
 10
0
 20
0
 40
150
100
AcDbArc
 50
-93.6486
 51
-93.24850000000001
  0
ARC
  5
5C2
100
AcDbEntity
  8
PolarPattern002
  6
ByLayer
 62
  256
370
   -1
100
AcDbCircle
 10
0
 20
0
 40
150
100
AcDbArc
 50
-86.75149999999999
 51
-86.3526
  0
LINE
  5
5C3
100
AcDbEntity
  8
PolarPattern002
  6
ByLayer
 62
  256
370
   -1
100
AcDbLine
 10
-8.5
 20
-125
 11
-8.5
 21
-149.759
  0
LINE
  5
5C4
100
AcDbEntity
  8
PolarPattern002
  6
ByLayer
 62
  256
370
   -1
100
AcDbLine
 10
8.5
 20
-125
 11
8.5
 21
-149.759
  0
ARC
  5
5C5
100
AcDbEntity
  8
PolarPattern002
  6
ByLayer
 62
  256
370
   -1
100
AcDbCircle
 10
0
 20
-125
 40
8.5
100
AcDbArc
 50
9.57908e-14
 51
-180
  0
CIRCLE
  5
5C6
100
AcDbEntity
  8
PolarPattern002
  6
ByLayer
 62
  256
370
   -1
100
AcDbCircle
 10
-56.56849999999997
 20
-56.5685
 40
5.05
  0
CIRCLE
  5
5C7
100
AcDbEntity
  8
PolarPattern002
  6
ByLayer
 62
  256
370
   -1
100
AcDbCircle
 10
0
 20
-80
 40
5.05
  0
CIRCLE
  5
5C8
100
AcDbEntity
  8
PolarPattern002
  6
ByLayer
 62
  256
370
   -1
100
AcDbCircle
 10
56.56849999999997
 20
-56.5685
 40
5.05
  0
CIRCLE
  5
5C9
100
AcDbEntity
  8
PolarPattern002
  6
ByLayer
 62
  256
370
   -1
100
AcDbCircle
 10
80
 20
-1.77635683940025e-14
 40
5.05
  0
CIRCLE
  5
5CA
100
AcDbEntity
  8
PolarPattern002
  6
ByLayer
 62
  256
370
   -1
100
AcDbCircle
 10
-80
 20
7.105427357601002e-15
 40
5.05
  0
CIRCLE
  5
5CB
100
AcDbEntity
  8
PolarPattern002
  6
ByLayer
 62
  256
370
   -1
100
AcDbCircle
 10
-56.56849999999997
 20
56.5685
 40
5.05
  0
CIRCLE
  5
5CC
100
AcDbEntity
  8
PolarPattern002
  6
ByLayer
 62
  256
370
   -1
100
AcDbCircle
 10
0
 20
0
 40
60
  0
CIRCLE
  5
5CD
100
AcDbEntity
  8
PolarPattern002
  6
ByLayer
 62
  256
370
   -1
100
AcDbCircle
 10
0
 20
80
 40
5.05
  0
CIRCLE
  5
5CE
100
AcDbEntity
  8
PolarPattern002
  6
ByLayer
 62
  256
370
   -1
100
AcDbCircle
 10
56.56849999999997
 20
56.5685
 40
5.05
  0
ARC
  5
5CF
100
AcDbEntity
  8
PolarPattern002
  6
ByLayer
 62
  256
370
   -1
100
AcDbCircle
 10
180.171
 20
35.83619999999999
 40
40.25
100
AcDbArc
 50
161.711
 51
-139.212
  0
LINE
  5
5D0
100
AcDbEntity
  8
PolarPattern002
  6
ByLayer
 62
  256
370
   -1
100
AcDbLine
 10
149.6959999999999
 20
9.542470000000002
 11
149.6959999999999
 21
9.542470000000002
  0
ARC
  5
5D1
100
AcDbEntity
  8
PolarPattern002
  6
ByLayer
 62
  256
370
   -1
100
AcDbCircle
 10
180.171
 20
35.83619999999999
 40
40.25
100
AcDbArc
 50
161.711
 51
-139.212
  0
LINE
  5
5D2
100
AcDbEntity
  8
PolarPattern002
  6
ByLayer
 62
  256
370
   -1
100
AcDbLine
 10
141.954
 20
48.46719999999999
 11
141.954
 21
48.46719999999999
  0
ARC
  5
5D3
100
AcDbEntity
  8
PolarPattern002
  6
ByLayer
 62
  256
370
   -1
100
AcDbCircle
 10
0
 20
125
 40
8.5
100
AcDbArc
 50
-180
 51
8.23801e-12
  0
LINE
  5
5D4
100
AcDbEntity
  8
PolarPattern002
  6
ByLayer
 62
  256
370
   -1
100
AcDbLine
 10
-8.5
 20
125
 11
-8.5
 21
149.759
  0
LINE
  5
5D5
100
AcDbEntity
  8
PolarPattern002
  6
ByLayer
 62
  256
370
   -1
100
AcDbLine
 10
8.5
 20
125
 11
8.5
 21
149.759
  0
ARC
  5
5D6
100
AcDbEntity
  8
PolarPattern002
  6
ByLayer
 62
  256
370
   -1
100
AcDbCircle
 10
0
 20
0
 40
150
100
AcDbArc
 50
93.24850000000001
 51
93.6474
  0
ARC
  5
5D7
100
AcDbEntity
  8
PolarPattern002
  6
ByLayer
 62
  256
370
   -1
100
AcDbCircle
 10
0
 20
0
 40
150
100
AcDbArc
 50
86.3514
 51
86.75149999999999
  0
ARC
  5
5D8
100
AcDbEntity
  8
PolarPattern002
  6
ByLayer
 62
  256
370
   -1
100
AcDbCircle
 10
-35.83619999999996
 20
180.171
 40
40.25
100
AcDbArc
 50
-108.289
 51
-49.2121
  0
ARC
  5
5D9
100
AcDbEntity
  8
PolarPattern002
  6
ByLayer
 62
  256
370
   -1
100
AcDbCircle
 10
35.84000000000003
 20
180.17
 40
40.25
100
AcDbArc
 50
-130.789
 51
-71.71210000000001
  0
ARC
  5
5DA
100
AcDbEntity
  8
PolarPattern002
  6
ByLayer
 62
  256
370
   -1
100
AcDbCircle
 10
0
 20
0
 40
150
100
AcDbArc
 50
108.851
 51
109.251
  0
ARC
  5
5DB
100
AcDbEntity
  8
PolarPattern002
  6
ByLayer
 62
  256
370
   -1
100
AcDbCircle
 10
0
 20
0
 40
150
100
AcDbArc
 50
70.74850000000001
 51
71.1474
  0
LINE
  5
5DC
100
AcDbEntity
  8
PolarPattern002
  6
ByLayer
 62
  256
370
   -1
100
AcDbLine
 10
-39.98249999999996
 20
118.738
 11
-49.45730000000003
 21
141.612
  0
LINE
  5
5DD
100
AcDbEntity
  8
PolarPattern002
  6
ByLayer
 62
  256
370
   -1
100
AcDbLine
 10
39.98249999999996
 20
118.738
 11
49.45730000000003
 21
141.612
  0
ARC
  5
5DE
100
AcDbEntity
  8
PolarPattern002
  6
ByLayer
 62
  256
370
   -1
100
AcDbCircle
 10
-47.83540000000005
 20
115.485
 40
8.5
100
AcDbArc
 50
-157.5
 51
22.5
  0
ARC
  5
5DF
100
AcDbEntity
  8
PolarPattern002
  6
ByLayer
 62
  256
370
   -1
100
AcDbCircle
 10
47.83540000000005
 20
115.485
 40
8.5
100
AcDbArc
 50
157.5
 51
-22.5
  0
LINE
  5
5E0
100
AcDbEntity
  8
PolarPattern002
  6
ByLayer
 62
  256
370
   -1
100
AcDbLine
 10
-55.6884
 20
112.232
 11
-65.16330000000005
 21
135.106
  0
LINE
  5
5E1
100
AcDbEntity
  8
PolarPattern002
  6
ByLayer
 62
  256
370
   -1
100
AcDbLine
 10
55.6884
 20
112.232
 11
65.16329999999994
 21
135.106
  0
ARC
  5
5E2
100
AcDbEntity
  8
PolarPattern002
  6
ByLayer
 62
  256
370
   -1
100
AcDbCircle
 10
0
 20
0
 40
150
100
AcDbArc
 50
115.749
 51
116.147
  0
ARC
  5
5E3
100
AcDbEntity
  8
PolarPattern002
  6
ByLayer
 62
  256
370
   -1
100
AcDbCircle
 10
0
 20
0
 40
150
100
AcDbArc
 50
63.8514
 51
64.25149999999999
  0
ARC
  5
5E4
100
AcDbEntity
  8
PolarPattern002
  6
ByLayer
 62
  256
370
   -1
100
AcDbCircle
 10
-102.057
 20
152.742
 40
40.25
100
AcDbArc
 50
-85.7891
 51
-26.7121
  0
ARC
  5
5E5
100
AcDbEntity
  8
PolarPattern002
  6
ByLayer
 62
  256
370
   -1
100
AcDbCircle
 10
102.0599999999999
 20
152.74
 40
40.25
100
AcDbArc
 50
-153.289
 51
-94.21210000000001
  0
ARC
  5
5E6
100
AcDbEntity
  8
PolarPattern002
  6
ByLayer
 62
  256
370
   -1
100
AcDbCircle
 10
0
 20
0
 40
150
100
AcDbArc
 50
131.351
 51
131.751
  0
ARC
  5
5E7
100
AcDbEntity
  8
PolarPattern002
  6
ByLayer
 62
  256
370
   -1
100
AcDbCircle
 10
0
 20
0
 40
150
100
AcDbArc
 50
48.2485
 51
48.6474
  0
LINE
  5
5E8
100
AcDbEntity
  8
PolarPattern002
  6
ByLayer
 62
  256
370
   -1
100
AcDbLine
 10
-82.37789999999995
 20
94.39879999999999
 11
-99.88519999999994
 21
111.906
  0
LINE
  5
5E9
100
AcDbEntity
  8
PolarPattern002
  6
ByLayer
 62
  256
370
   -1
100
AcDbLine
 10
82.37789999999995
 20
94.39879999999999
 11
99.88519999999994
 21
111.906
  0
ARC
  5
5EA
100
AcDbEntity
  8
PolarPattern002
  6
ByLayer
 62
  256
370
   -1
100
AcDbCircle
 10
-88.38829999999996
 20
88.3883
 40
8.5
100
AcDbArc
 50
-135
 51
45
  0
ARC
  5
5EB
100
AcDbEntity
  8
PolarPattern002
  6
ByLayer
 62
  256
370
   -1
100
AcDbCircle
 10
88.38830000000007
 20
88.3883
 40
8.5
100
AcDbArc
 50
135
 51
-45
  0
LINE
  5
5EC
100
AcDbEntity
  8
PolarPattern002
  6
ByLayer
 62
  256
370
   -1
100
AcDbLine
 10
-94.39879999999994
 20
82.3779
 11
-111.9059999999999
 21
99.8852
  0
LINE
  5
5ED
100
AcDbEntity
  8
PolarPattern002
  6
ByLayer
 62
  256
370
   -1
100
AcDbLine
 10
94.39879999999994
 20
82.3779
 11
111.9059999999999
 21
99.8852
  0
ARC
  5
5EE
100
AcDbEntity
  8
PolarPattern002
  6
ByLayer
 62
  256
370
   -1
100
AcDbCircle
 10
0
 20
0
 40
150
100
AcDbArc
 50
138.249
 51
138.647
  0
ARC
  5
5EF
100
AcDbEntity
  8
PolarPattern002
  6
ByLayer
 62
  256
370
   -1
100
AcDbCircle
 10
0
 20
0
 40
150
100
AcDbArc
 50
41.3514
 51
41.7515
  0
ARC
  5
5F0
100
AcDbEntity
  8
PolarPattern002
  6
ByLayer
 62
  256
370
   -1
100
AcDbCircle
 10
-152.74
 20
102.06
 40
40.25
100
AcDbArc
 50
-63.2891
 51
-4.21206
  0
ARC
  5
5F1
100
AcDbEntity
  8
PolarPattern002
  6
ByLayer
 62
  256
370
   -1
100
AcDbCircle
 10
152.742
 20
102.057
 40
40.25
100
AcDbArc
 50
-175.789
 51
-116.712
  0
ARC
  5
5F2
100
AcDbEntity
  8
PolarPattern002
  6
ByLayer
 62
  256
370
   -1
100
AcDbCircle
 10
0
 20
0
 40
150
100
AcDbArc
 50
153.851
 51
154.251
  0
ARC
  5
5F3
100
AcDbEntity
  8
PolarPattern002
  6
ByLayer
 62
  256
370
   -1
100
AcDbCircle
 10
0
 20
0
 40
150
100
AcDbArc
 50
25.7485
 51
26.1474
  0
LINE
  5
5F4
100
AcDbEntity
  8
PolarPattern002
  6
ByLayer
 62
  256
370
   -1
100
AcDbLine
 10
-112.232
 20
55.6884
 11
-135.106
 21
65.16330000000001
  0
LINE
  5
5F5
100
AcDbEntity
  8
PolarPattern002
  6
ByLayer
 62
  256
370
   -1
100
AcDbLine
 10
112.232
 20
55.6884
 11
135.106
 21
65.16330000000001
  0
ARC
  5
5F6
100
AcDbEntity
  8
PolarPattern002
  6
ByLayer
 62
  256
370
   -1
100
AcDbCircle
 10
-115.485
 20
47.83539999999999
 40
8.5
100
AcDbArc
 50
-112.5
 51
67.5
  0
ARC
  5
5F7
100
AcDbEntity
  8
PolarPattern002
  6
ByLayer
 62
  256
370
   -1
100
AcDbCircle
 10
115.4849999999999
 20
47.83539999999999
 40
8.5
100
AcDbArc
 50
112.5
 51
-67.5
  0
LINE
  5
5F8
100
AcDbEntity
  8
PolarPattern002
  6
ByLayer
 62
  256
370
   -1
100
AcDbLine
 10
-118.7380000000001
 20
39.9825
 11
-141.612
 21
49.4573
  0
LINE
  5
5F9
100
AcDbEntity
  8
PolarPattern002
  6
ByLayer
 62
  256
370
   -1
100
AcDbLine
 10
118.7380000000001
 20
39.9825
 11
141.6120000000001
 21
49.4573
  0
ARC
  5
5FA
100
AcDbEntity
  8
PolarPattern002
  6
ByLayer
 62
  256
370
   -1
100
AcDbCircle
 10
0
 20
0
 40
150
100
AcDbArc
 50
160.749
 51
161.147
  0
ARC
  5
5FB
100
AcDbEntity
  8
PolarPattern002
  6
ByLayer
 62
  256
370
   -1
100
AcDbCircle
 10
0
 20
0
 40
150
100
AcDbArc
 50
18.8514
 51
19.2515
  0
ARC
  5
5FC
100
AcDbEntity
  8
PolarPattern002
  6
ByLayer
 62
  256
370
   -1
100
AcDbCircle
 10
-180.17
 20
35.84
 40
40.25
100
AcDbArc
 50
-40.7891
 51
18.2879
  0
ARC
  5
5FD
100
AcDbEntity
  8
PolarPattern002
  6
ByLayer
 62
  256
370
   -1
100
AcDbCircle
 10
180.171
 20
35.83619999999999
 40
40.25
100
AcDbArc
 50
161.711
 51
-139.212
  0
ARC
  5
5FE
100
AcDbEntity
  8
PolarPattern002
  6
ByLayer
 62
  256
370
   -1
100
AcDbCircle
 10
0
 20
0
 40
150
100
AcDbArc
 50
176.351
 51
176.751
  0
ARC
  5
5FF
100
AcDbEntity
  8
PolarPattern002
  6
ByLayer
 62
  256
370
   -1
100
AcDbCircle
 10
0
 20
0
 40
150
100
AcDbArc
 50
3.2485
 51
3.64742
  0
LINE
  5
600
100
AcDbEntity
  8
PolarPattern002
  6
ByLayer
 62
  256
370
   -1
100
AcDbLine
 10
-125
 20
8.5
 11
-149.759
 21
8.5
  0
LINE
  5
601
100
AcDbEntity
  8
PolarPattern002
  6
ByLayer
 62
  256
370
   -1
100
AcDbLine
 10
125
 20
8.5
 11
149.759
 21
8.5
  0
ARC
  5
602
100
AcDbEntity
  8
PolarPattern002
  6
ByLayer
 62
  256
370
   -1
100
AcDbCircle
 10
-125
 20
0
 40
8.5
100
AcDbArc
 50
-90
 51
90
  0
ARC
  5
603
100
AcDbEntity
  8
PolarPattern002
  6
ByLayer
 62
  256
370
   -1
100
AcDbCircle
 10
125
 20
0
 40
8.5
100
AcDbArc
 50
90
 51
-90
  0
LINE
  5
604
100
AcDbEntity
  8
PolarPattern002
  6
ByLayer
 62
  256
370
   -1
100
AcDbLine
 10
-125
 20
-8.5
 11
-149.759
 21
-8.5
  0
LINE
  5
605
100
AcDbEntity
  8
PolarPattern002
  6
ByLayer
 62
  256
370
   -1
100
AcDbLine
 10
125
 20
-8.5
 11
149.759
 21
-8.5
  0
ARC
  5
606
100
AcDbEntity
  8
PolarPattern002
  6
ByLayer
 62
  256
370
   -1
100
AcDbCircle
 10
0
 20
0
 40
150
100
AcDbArc
 50
-176.751
 51
-176.353
  0
ARC
  5
607
100
AcDbEntity
  8
PolarPattern002
  6
ByLayer
 62
  256
370
   -1
100
AcDbCircle
 10
0
 20
0
 40
150
100
AcDbArc
 50
-3.64862
 51
-3.2485
  0
ARC
  5
608
100
AcDbEntity
  8
PolarPattern002
  6
ByLayer
 62
  256
370
   -1
100
AcDbCircle
 10
-180.171
 20
-35.8362
 40
40.25
100
AcDbArc
 50
-18.2891
 51
40.7879
  0
ARC
  5
609
100
AcDbEntity
  8
PolarPattern002
  6
ByLayer
 62
  256
370
   -1
100
AcDbCircle
 10
180.1700000000001
 20
-35.84
 40
40.25
100
AcDbArc
 50
139.211
 51
-161.712
  0
ARC
  5
60A
100
AcDbEntity
  8
PolarPattern002
  6
ByLayer
 62
  256
370
   -1
100
AcDbCircle
 10
0
 20
0
 40
150
100
AcDbArc
 50
-161.149
 51
-160.749
  0
ARC
  5
60B
100
AcDbEntity
  8
PolarPattern002
  6
ByLayer
 62
  256
370
   -1
100
AcDbCircle
 10
0
 20
0
 40
150
100
AcDbArc
 50
-19.2515
 51
-18.8526
  0
LINE
  5
60C
100
AcDbEntity
  8
PolarPattern002
  6
ByLayer
 62
  256
370
   -1
100
AcDbLine
 10
-118.7380000000001
 20
-39.9825
 11
-141.612
 21
-49.4573
  0
LINE
  5
60D
100
AcDbEntity
  8
PolarPattern002
  6
ByLayer
 62
  256
370
   -1
100
AcDbLine
 10
118.7380000000001
 20
-39.9825
 11
141.6120000000001
 21
-49.4573
  0
ARC
  5
60E
100
AcDbEntity
  8
PolarPattern002
  6
ByLayer
 62
  256
370
   -1
100
AcDbCircle
 10
-115.485
 20
-47.8354
 40
8.5
100
AcDbArc
 50
-67.5
 51
112.5
  0
ARC
  5
60F
100
AcDbEntity
  8
PolarPattern002
  6
ByLayer
 62
  256
370
   -1
100
AcDbCircle
 10
115.4849999999999
 20
-47.8354
 40
8.5
100
AcDbArc
 50
67.5
 51
-112.5
  0
LINE
  5
610
100
AcDbEntity
  8
PolarPattern002
  6
ByLayer
 62
  256
370
   -1
100
AcDbLine
 10
-112.232
 20
-55.6884
 11
-135.106
 21
-65.16330000000001
  0
LINE
  5
611
100
AcDbEntity
  8
PolarPattern002
  6
ByLayer
 62
  256
370
   -1
100
AcDbLine
 10
112.232
 20
-55.6884
 11
135.106
 21
-65.16330000000001
  0
ARC
  5
612
100
AcDbEntity
  8
PolarPattern002
  6
ByLayer
 62
  256
370
   -1
100
AcDbCircle
 10
0
 20
0
 40
150
100
AcDbArc
 50
-154.251
 51
-153.853
  0
ARC
  5
613
100
AcDbEntity
  8
PolarPattern002
  6
ByLayer
 62
  256
370
   -1
100
AcDbCircle
 10
0
 20
0
 40
150
100
AcDbArc
 50
-26.1486
 51
-25.7485
  0
ARC
  5
614
100
AcDbEntity
  8
PolarPattern002
  6
ByLayer
 62
  256
370
   -1
100
AcDbCircle
 10
-152.742
 20
-102.057
 40
40.25
100
AcDbArc
 50
4.21086
 51
63.2879
  0
ARC
  5
615
100
AcDbEntity
  8
PolarPattern002
  6
ByLayer
 62
  256
370
   -1
100
AcDbCircle
 10
152.74
 20
-102.06
 40
40.25
100
AcDbArc
 50
116.711
 51
175.788
  0
ARC
  5
616
100
AcDbEntity
  8
PolarPattern002
  6
ByLayer
 62
  256
370
   -1
100
AcDbCircle
 10
0
 20
0
 40
150
100
AcDbArc
 50
-138.649
 51
-138.249
  0
ARC
  5
617
100
AcDbEntity
  8
PolarPattern002
  6
ByLayer
 62
  256
370
   -1
100
AcDbCircle
 10
0
 20
0
 40
150
100
AcDbArc
 50
-41.7515
 51
-41.3526
  0
LINE
  5
618
100
AcDbEntity
  8
PolarPattern002
  6
ByLayer
 62
  256
370
   -1
100
AcDbLine
 10
-94.39879999999994
 20
-82.3779
 11
-111.9059999999999
 21
-99.8852
  0
LINE
  5
619
100
AcDbEntity
  8
PolarPattern002
  6
ByLayer
 62
  256
370
   -1
100
AcDbLine
 10
94.39879999999994
 20
-82.3779
 11
111.9059999999999
 21
-99.8852
  0
ARC
  5
61A
100
AcDbEntity
  8
PolarPattern002
  6
ByLayer
 62
  256
370
   -1
100
AcDbCircle
 10
-88.38829999999996
 20
-88.3883
 40
8.5
100
AcDbArc
 50
-45
 51
135
  0
ARC
  5
61B
100
AcDbEntity
  8
PolarPattern002
  6
ByLayer
 62
  256
370
   -1
100
AcDbCircle
 10
88.38830000000007
 20
-88.3883
 40
8.5
100
AcDbArc
 50
45
 51
-135
  0
LINE
  5
61C
100
AcDbEntity
  8
PolarPattern002
  6
ByLayer
 62
  256
370
   -1
100
AcDbLine
 10
-82.37789999999995
 20
-94.39879999999999
 11
-99.88519999999994
 21
-111.906
  0
LINE
  5
61D
100
AcDbEntity
  8
PolarPattern002
  6
ByLayer
 62
  256
370
   -1
100
AcDbLine
 10
82.37789999999995
 20
-94.39879999999999
 11
99.88519999999994
 21
-111.906
  0
ARC
  5
61E
100
AcDbEntity
  8
PolarPattern002
  6
ByLayer
 62
  256
370
   -1
100
AcDbCircle
 10
0
 20
0
 40
150
100
AcDbArc
 50
-131.751
 51
-131.353
  0
ARC
  5
61F
100
AcDbEntity
  8
PolarPattern002
  6
ByLayer
 62
  256
370
   -1
100
AcDbCircle
 10
0
 20
0
 40
150
100
AcDbArc
 50
-48.6486
 51
-48.2485
  0
ARC
  5
620
100
AcDbEntity
  8
PolarPattern002
  6
ByLayer
 62
  256
370
   -1
100
AcDbCircle
 10
-102.0599999999999
 20
-152.74
 40
40.25
100
AcDbArc
 50
26.7109
 51
85.78789999999999
  0
ARC
  5
621
100
AcDbEntity
  8
PolarPattern002
  6
ByLayer
 62
  256
370
   -1
100
AcDbCircle
 10
102.057
 20
-152.742
 40
40.25
100
AcDbArc
 50
94.2109
 51
153.288
  0
ARC
  5
622
100
AcDbEntity
  8
PolarPattern002
  6
ByLayer
 62
  256
370
   -1
100
AcDbCircle
 10
0
 20
0
 40
150
100
AcDbArc
 50
-116.149
 51
-115.749
  0
ARC
  5
623
100
AcDbEntity
  8
PolarPattern002
  6
ByLayer
 62
  256
370
   -1
100
AcDbCircle
 10
0
 20
0
 40
150
100
AcDbArc
 50
-64.25149999999999
 51
-63.8526
  0
LINE
  5
624
100
AcDbEntity
  8
PolarPattern002
  6
ByLayer
 62
  256
370
   -1
100
AcDbLine
 10
-55.6884
 20
-112.232
 11
-65.16330000000005
 21
-135.106
  0
LINE
  5
625
100
AcDbEntity
  8
PolarPattern002
  6
ByLayer
 62
  256
370
   -1
100
AcDbLine
 10
55.6884
 20
-112.232
 11
65.16329999999994
 21
-135.106
  0
ARC
  5
626
100
AcDbEntity
  8
PolarPattern002
  6
ByLayer
 62
  256
370
   -1
100
AcDbCircle
 10
-47.83540000000005
 20
-115.485
 40
8.5
100
AcDbArc
 50
-22.5
 51
157.5
  0
ARC
  5
627
100
AcDbEntity
  8
PolarPattern002
  6
ByLayer
 62
  256
370
   -1
100
AcDbCircle
 10
47.83540000000005
 20
-115.485
 40
8.5
100
AcDbArc
 50
22.5
 51
-157.5
  0
LINE
  5
628
100
AcDbEntity
  8
PolarPattern002
  6
ByLayer
 62
  256
370
   -1
100
AcDbLine
 10
-39.98249999999996
 20
-118.738
 11
-49.45730000000003
 21
-141.612
  0
LINE
  5
629
100
AcDbEntity
  8
PolarPattern002
  6
ByLayer
 62
  256
370
   -1
100
AcDbLine
 10
39.98249999999996
 20
-118.738
 11
49.45730000000003
 21
-141.612
  0
ARC
  5
62A
100
AcDbEntity
  8
PolarPattern002
  6
ByLayer
 62
  256
370
   -1
100
AcDbCircle
 10
0
 20
0
 40
150
100
AcDbArc
 50
-109.251
 51
-108.853
  0
ARC
  5
62B
100
AcDbEntity
  8
PolarPattern002
  6
ByLayer
 62
  256
370
   -1
100
AcDbCircle
 10
0
 20
0
 40
150
100
AcDbArc
 50
-71.1486
 51
-70.74850000000001
  0
ARC
  5
62C
100
AcDbEntity
  8
PolarPattern002
  6
ByLayer
 62
  256
370
   -1
100
AcDbCircle
 10
-35.84000000000003
 20
-180.17
 40
40.25
100
AcDbArc
 50
49.2109
 51
108.288
  0
ARC
  5
62D
100
AcDbEntity
  8
PolarPattern002
  6
ByLayer
 62
  256
370
   -1
100
AcDbCircle
 10
35.83619999999996
 20
-180.171
 40
40.25
100
AcDbArc
 50
71.7109
 51
130.788
  0
ARC
  5
62E
100
AcDbEntity
  8
PolarPattern002
  6
ByLayer
 62
  256
370
   -1
100
AcDbCircle
 10
0
 20
0
 40
150
100
AcDbArc
 50
-93.6486
 51
-93.24850000000001
  0
ARC
  5
62F
100
AcDbEntity
  8
PolarPattern002
  6
ByLayer
 62
  256
370
   -1
100
AcDbCircle
 10
0
 20
0
 40
150
100
AcDbArc
 50
-86.75149999999999
 51
-86.3526
  0
LINE
  5
630
100
AcDbEntity
  8
PolarPattern002
  6
ByLayer
 62
  256
370
   -1
100
AcDbLine
 10
-8.5
 20
-125
 11
-8.5
 21
-149.759
  0
LINE
  5
631
100
AcDbEntity
  8
PolarPattern002
  6
ByLayer
 62
  256
370
   -1
100
AcDbLine
 10
8.5
 20
-125
 11
8.5
 21
-149.759
  0
ARC
  5
632
100
AcDbEntity
  8
PolarPattern002
  6
ByLayer
 62
  256
370
   -1
100
AcDbCircle
 10
0
 20
-125
 40
8.5
100
AcDbArc
 50
9.57908e-14
 51
-180
  0
CIRCLE
  5
633
100
AcDbEntity
  8
PolarPattern002
  6
ByLayer
 62
  256
370
   -1
100
AcDbCircle
 10
-56.56849999999997
 20
-56.5685
 40
5.05
  0
CIRCLE
  5
634
100
AcDbEntity
  8
PolarPattern002
  6
ByLayer
 62
  256
370
   -1
100
AcDbCircle
 10
0
 20
-80
 40
5.05
  0
CIRCLE
  5
635
100
AcDbEntity
  8
PolarPattern002
  6
ByLayer
 62
  256
370
   -1
100
AcDbCircle
 10
56.56849999999997
 20
-56.5685
 40
5.05
  0
CIRCLE
  5
636
100
AcDbEntity
  8
PolarPattern002
  6
ByLayer
 62
  256
370
   -1
100
AcDbCircle
 10
80
 20
0
 40
5.05
  0
CIRCLE
  5
637
100
AcDbEntity
  8
PolarPattern002
  6
ByLayer
 62
  256
370
   -1
100
AcDbCircle
 10
-80
 20
0
 40
5.05
  0
CIRCLE
  5
638
100
AcDbEntity
  8
PolarPattern002
  6
ByLayer
 62
  256
370
   -1
100
AcDbCircle
 10
-56.56849999999997
 20
56.5685
 40
5.05
  0
CIRCLE
  5
639
100
AcDbEntity
  8
PolarPattern002
  6
ByLayer
 62
  256
370
   -1
100
AcDbCircle
 10
0
 20
0
 40
60
  0
CIRCLE
  5
63A
100
AcDbEntity
  8
PolarPattern002
  6
ByLayer
 62
  256
370
   -1
100
AcDbCircle
 10
0
 20
80
 40
5.05
  0
CIRCLE
  5
63B
100
AcDbEntity
  8
PolarPattern002
  6
ByLayer
 62
  256
370
   -1
100
AcDbCircle
 10
56.56849999999997
 20
56.5685
 40
5.05
  0
LINE
  5
63C
100
AcDbEntity
  8
PolarPattern002
  6
ByLayer
 62
  256
370
   -1
100
AcDbLine
 10
125
 20
8.5
 11
149.759
 21
8.5
  0
LINE
  5
63D
100
AcDbEntity
  8
PolarPattern002
  6
ByLayer
 62
  256
370
   -1
100
AcDbLine
 10
149.759
 20
8.5
 11
149.759
 21
8.5
  0
LINE
  5
63E
100
AcDbEntity
  8
PolarPattern002
  6
ByLayer
 62
  256
370
   -1
100
AcDbLine
 10
125
 20
8.5
 11
149.759
 21
8.5
  0
LINE
  5
63F
100
AcDbEntity
  8
PolarPattern002
  6
ByLayer
 62
  256
370
   -1
100
AcDbLine
 10
125
 20
8.5
 11
125
 21
8.5
  0
ARC
  5
640
100
AcDbEntity
  8
PolarPattern002
  6
ByLayer
 62
  256
370
   -1
100
AcDbCircle
 10
0
 20
125
 40
8.5
100
AcDbArc
 50
-180
 51
8.23801e-12
  0
LINE
  5
641
100
AcDbEntity
  8
PolarPattern002
  6
ByLayer
 62
  256
370
   -1
100
AcDbLine
 10
8.5
 20
125
 11
8.5
 21
125
  0
ARC
  5
642
100
AcDbEntity
  8
PolarPattern002
  6
ByLayer
 62
  256
370
   -1
100
AcDbCircle
 10
0
 20
125
 40
8.5
100
AcDbArc
 50
-180
 51
8.23801e-12
  0
LINE
  5
643
100
AcDbEntity
  8
PolarPattern002
  6
ByLayer
 62
  256
370
   -1
100
AcDbLine
 10
-8.5
 20
125
 11
-8.5
 21
125
  0
LINE
  5
644
100
AcDbEntity
  8
PolarPattern002
  6
ByLayer
 62
  256
370
   -1
100
AcDbLine
 10
-8.5
 20
125
 11
-8.5
 21
149.759
  0
LINE
  5
645
100
AcDbEntity
  8
PolarPattern002
  6
ByLayer
 62
  256
370
   -1
100
AcDbLine
 10
-8.5
 20
149.759
 11
-8.5
 21
149.759
  0
LINE
  5
646
100
AcDbEntity
  8
PolarPattern002
  6
ByLayer
 62
  256
370
   -1
100
AcDbLine
 10
-8.5
 20
125
 11
-8.5
 21
149.759
  0
LINE
  5
647
100
AcDbEntity
  8
PolarPattern002
  6
ByLayer
 62
  256
370
   -1
100
AcDbLine
 10
-8.5
 20
125
 11
-8.5
 21
125
  0
LINE
  5
648
100
AcDbEntity
  8
PolarPattern002
  6
ByLayer
 62
  256
370
   -1
100
AcDbLine
 10
8.5
 20
125
 11
8.5
 21
149.759
  0
LINE
  5
649
100
AcDbEntity
  8
PolarPattern002
  6
ByLayer
 62
  256
370
   -1
100
AcDbLine
 10
8.5
 20
149.759
 11
8.5
 21
149.759
  0
LINE
  5
64A
100
AcDbEntity
  8
PolarPattern002
  6
ByLayer
 62
  256
370
   -1
100
AcDbLine
 10
8.5
 20
125
 11
8.5
 21
149.759
  0
LINE
  5
64B
100
AcDbEntity
  8
PolarPattern002
  6
ByLayer
 62
  256
370
   -1
100
AcDbLine
 10
8.5
 20
125
 11
8.5
 21
125
  0
ARC
  5
64C
100
AcDbEntity
  8
PolarPattern002
  6
ByLayer
 62
  256
370
   -1
100
AcDbCircle
 10
0
 20
0
 40
150
100
AcDbArc
 50
93.24850000000001
 51
93.6474
  0
LINE
  5
64D
100
AcDbEntity
  8
PolarPattern002
  6
ByLayer
 62
  256
370
   -1
100
AcDbLine
 10
-8.5
 20
149.759
 11
-8.5
 21
149.759
  0
ARC
  5
64E
100
AcDbEntity
  8
PolarPattern002
  6
ByLayer
 62
  256
370
   -1
100
AcDbCircle
 10
0
 20
0
 40
150
100
AcDbArc
 50
93.24850000000001
 51
93.6474
  0
LINE
  5
64F
100
AcDbEntity
  8
PolarPattern002
  6
ByLayer
 62
  256
370
   -1
100
AcDbLine
 10
-9.54246999999998
 20
149.696
 11
-9.54246999999998
 21
149.696
  0
ARC
  5
650
100
AcDbEntity
  8
PolarPattern002
  6
ByLayer
 62
  256
370
   -1
100
AcDbCircle
 10
0
 20
0
 40
150
100
AcDbArc
 50
86.3514
 51
86.75149999999999
  0
LINE
  5
651
100
AcDbEntity
  8
PolarPattern002
  6
ByLayer
 62
  256
370
   -1
100
AcDbLine
 10
8.5
 20
149.759
 11
8.5
 21
149.759
  0
ARC
  5
652
100
AcDbEntity
  8
PolarPattern002
  6
ByLayer
 62
  256
370
   -1
100
AcDbCircle
 10
0
 20
0
 40
150
100
AcDbArc
 50
86.3514
 51
86.75149999999999
  0
LINE
  5
653
100
AcDbEntity
  8
PolarPattern002
  6
ByLayer
 62
  256
370
   -1
100
AcDbLine
 10
9.545600000000036
 20
149.696
 11
9.545600000000036
 21
149.696
  0
ARC
  5
654
100
AcDbEntity
  8
PolarPattern002
  6
ByLayer
 62
  256
370
   -1
100
AcDbCircle
 10
-35.83619999999996
 20
180.171
 40
40.25
100
AcDbArc
 50
-108.289
 51
-49.2121
  0
LINE
  5
655
100
AcDbEntity
  8
PolarPattern002
  6
ByLayer
 62
  256
370
   -1
100
AcDbLine
 10
-9.54246999999998
 20
149.696
 11
-9.54246999999998
 21
149.696
  0
ARC
  5
656
100
AcDbEntity
  8
PolarPattern002
  6
ByLayer
 62
  256
370
   -1
100
AcDbCircle
 10
-35.83619999999996
 20
180.171
 40
40.25
100
AcDbArc
 50
-108.289
 51
-49.2121
  0
LINE
  5
657
100
AcDbEntity
  8
PolarPattern002
  6
ByLayer
 62
  256
370
   -1
100
AcDbLine
 10
-48.46720000000005
 20
141.954
 11
-48.46720000000005
 21
141.954
  0
ARC
  5
658
100
AcDbEntity
  8
PolarPattern002
  6
ByLayer
 62
  256
370
   -1
100
AcDbCircle
 10
35.84000000000003
 20
180.17
 40
40.25
100
AcDbArc
 50
-130.789
 51
-71.71210000000001
  0
LINE
  5
659
100
AcDbEntity
  8
PolarPattern002
  6
ByLayer
 62
  256
370
   -1
100
AcDbLine
 10
48.47019999999998
 20
141.953
 11
48.47019999999998
 21
141.953
  0
ARC
  5
65A
100
AcDbEntity
  8
PolarPattern002
  6
ByLayer
 62
  256
370
   -1
100
AcDbCircle
 10
35.84000000000003
 20
180.17
 40
40.25
100
AcDbArc
 50
-130.789
 51
-71.71210000000001
  0
LINE
  5
65B
100
AcDbEntity
  8
PolarPattern002
  6
ByLayer
 62
  256
370
   -1
100
AcDbLine
 10
9.545600000000036
 20
149.696
 11
9.545600000000036
 21
149.696
  0
ARC
  5
65C
100
AcDbEntity
  8
PolarPattern002
  6
ByLayer
 62
  256
370
   -1
100
AcDbCircle
 10
0
 20
0
 40
150
100
AcDbArc
 50
108.851
 51
109.251
  0
LINE
  5
65D
100
AcDbEntity
  8
PolarPattern002
  6
ByLayer
 62
  256
370
   -1
100
AcDbLine
 10
-48.46720000000005
 20
141.954
 11
-48.46720000000005
 21
141.954
  0
ARC
  5
65E
100
AcDbEntity
  8
PolarPattern002
  6
ByLayer
 62
  256
370
   -1
100
AcDbCircle
 10
0
 20
0
 40
150
100
AcDbArc
 50
108.851
 51
109.251
  0
LINE
  5
65F
100
AcDbEntity
  8
PolarPattern002
  6
ByLayer
 62
  256
370
   -1
100
AcDbLine
 10
-49.45730000000003
 20
141.612
 11
-49.45730000000003
 21
141.612
  0
ARC
  5
660
100
AcDbEntity
  8
PolarPattern002
  6
ByLayer
 62
  256
370
   -1
100
AcDbCircle
 10
0
 20
0
 40
150
100
AcDbArc
 50
70.74850000000001
 51
71.1474
  0
LINE
  5
661
100
AcDbEntity
  8
PolarPattern002
  6
ByLayer
 62
  256
370
   -1
100
AcDbLine
 10
48.47019999999998
 20
141.953
 11
48.47019999999998
 21
141.953
  0
ARC
  5
662
100
AcDbEntity
  8
PolarPattern002
  6
ByLayer
 62
  256
370
   -1
100
AcDbCircle
 10
0
 20
0
 40
150
100
AcDbArc
 50
70.74850000000001
 51
71.1474
  0
LINE
  5
663
100
AcDbEntity
  8
PolarPattern002
  6
ByLayer
 62
  256
370
   -1
100
AcDbLine
 10
49.45730000000003
 20
141.612
 11
49.45730000000003
 21
141.612
  0
LINE
  5
664
100
AcDbEntity
  8
PolarPattern002
  6
ByLayer
 62
  256
370
   -1
100
AcDbLine
 10
-39.98249999999996
 20
118.738
 11
-49.45730000000003
 21
141.612
  0
LINE
  5
665
100
AcDbEntity
  8
PolarPattern002
  6
ByLayer
 62
  256
370
   -1
100
AcDbLine
 10
-49.45730000000003
 20
141.612
 11
-49.45730000000003
 21
141.612
  0
LINE
  5
666
100
AcDbEntity
  8
PolarPattern002
  6
ByLayer
 62
  256
370
   -1
100
AcDbLine
 10
-39.98249999999996
 20
118.738
 11
-49.45730000000003
 21
141.612
  0
LINE
  5
667
100
AcDbEntity
  8
PolarPattern002
  6
ByLayer
 62
  256
370
   -1
100
AcDbLine
 10
-39.98249999999996
 20
118.738
 11
-39.98249999999996
 21
118.738
  0
LINE
  5
668
100
AcDbEntity
  8
PolarPattern002
  6
ByLayer
 62
  256
370
   -1
100
AcDbLine
 10
39.98249999999996
 20
118.738
 11
49.45730000000003
 21
141.612
  0
LINE
  5
669
100
AcDbEntity
  8
PolarPattern002
  6
ByLayer
 62
  256
370
   -1
100
AcDbLine
 10
49.45730000000003
 20
141.612
 11
49.45730000000003
 21
141.612
  0
LINE
  5
66A
100
AcDbEntity
  8
PolarPattern002
  6
ByLayer
 62
  256
370
   -1
100
AcDbLine
 10
39.98249999999996
 20
118.738
 11
49.45730000000003
 21
141.612
  0
LINE
  5
66B
100
AcDbEntity
  8
PolarPattern002
  6
ByLayer
 62
  256
370
   -1
100
AcDbLine
 10
39.98249999999996
 20
118.738
 11
39.98249999999996
 21
118.738
  0
ARC
  5
66C
100
AcDbEntity
  8
PolarPattern002
  6
ByLayer
 62
  256
370
   -1
100
AcDbCircle
 10
-47.83540000000005
 20
115.485
 40
8.5
100
AcDbArc
 50
-157.5
 51
22.5
  0
LINE
  5
66D
100
AcDbEntity
  8
PolarPattern002
  6
ByLayer
 62
  256
370
   -1
100
AcDbLine
 10
-39.98249999999996
 20
118.738
 11
-39.98249999999996
 21
118.738
  0
ARC
  5
66E
100
AcDbEntity
  8
PolarPattern002
  6
ByLayer
 62
  256
370
   -1
100
AcDbCircle
 10
-47.83540000000005
 20
115.485
 40
8.5
100
AcDbArc
 50
-157.5
 51
22.5
  0
LINE
  5
66F
100
AcDbEntity
  8
PolarPattern002
  6
ByLayer
 62
  256
370
   -1
100
AcDbLine
 10
-55.6884
 20
112.232
 11
-55.6884
 21
112.232
  0
ARC
  5
670
100
AcDbEntity
  8
PolarPattern002
  6
ByLayer
 62
  256
370
   -1
100
AcDbCircle
 10
47.83540000000005
 20
115.485
 40
8.5
100
AcDbArc
 50
157.5
 51
-22.5
  0
LINE
  5
671
100
AcDbEntity
  8
PolarPattern002
  6
ByLayer
 62
  256
370
   -1
100
AcDbLine
 10
55.6884
 20
112.232
 11
55.6884
 21
112.232
  0
ARC
  5
672
100
AcDbEntity
  8
PolarPattern002
  6
ByLayer
 62
  256
370
   -1
100
AcDbCircle
 10
47.83540000000005
 20
115.485
 40
8.5
100
AcDbArc
 50
157.5
 51
-22.5
  0
LINE
  5
673
100
AcDbEntity
  8
PolarPattern002
  6
ByLayer
 62
  256
370
   -1
100
AcDbLine
 10
39.98249999999996
 20
118.738
 11
39.98249999999996
 21
118.738
  0
LINE
  5
674
100
AcDbEntity
  8
PolarPattern002
  6
ByLayer
 62
  256
370
   -1
100
AcDbLine
 10
-55.6884
 20
112.232
 11
-65.16330000000005
 21
135.106
  0
LINE
  5
675
100
AcDbEntity
  8
PolarPattern002
  6
ByLayer
 62
  256
370
   -1
100
AcDbLine
 10
-65.16330000000005
 20
135.106
 11
-65.16330000000005
 21
135.106
  0
LINE
  5
676
100
AcDbEntity
  8
PolarPattern002
  6
ByLayer
 62
  256
370
   -1
100
AcDbLine
 10
-55.6884
 20
112.232
 11
-65.16330000000005
 21
135.106
  0
LINE
  5
677
100
AcDbEntity
  8
PolarPattern002
  6
ByLayer
 62
  256
370
   -1
100
AcDbLine
 10
-55.6884
 20
112.232
 11
-55.6884
 21
112.232
  0
LINE
  5
678
100
AcDbEntity
  8
PolarPattern002
  6
ByLayer
 62
  256
370
   -1
100
AcDbLine
 10
55.6884
 20
112.232
 11
65.16329999999994
 21
135.106
  0
LINE
  5
679
100
AcDbEntity
  8
PolarPattern002
  6
ByLayer
 62
  256
370
   -1
100
AcDbLine
 10
65.16329999999994
 20
135.106
 11
65.16329999999994
 21
135.106
  0
LINE
  5
67A
100
AcDbEntity
  8
PolarPattern002
  6
ByLayer
 62
  256
370
   -1
100
AcDbLine
 10
55.6884
 20
112.232
 11
65.16329999999994
 21
135.106
  0
LINE
  5
67B
100
AcDbEntity
  8
PolarPattern002
  6
ByLayer
 62
  256
370
   -1
100
AcDbLine
 10
55.6884
 20
112.232
 11
55.6884
 21
112.232
  0
ARC
  5
67C
100
AcDbEntity
  8
PolarPattern002
  6
ByLayer
 62
  256
370
   -1
100
AcDbCircle
 10
0
 20
0
 40
150
100
AcDbArc
 50
115.749
 51
116.147
  0
LINE
  5
67D
100
AcDbEntity
  8
PolarPattern002
  6
ByLayer
 62
  256
370
   -1
100
AcDbLine
 10
-65.16330000000005
 20
135.106
 11
-65.16330000000005
 21
135.106
  0
ARC
  5
67E
100
AcDbEntity
  8
PolarPattern002
  6
ByLayer
 62
  256
370
   -1
100
AcDbCircle
 10
0
 20
0
 40
150
100
AcDbArc
 50
115.749
 51
116.147
  0
LINE
  5
67F
100
AcDbEntity
  8
PolarPattern002
  6
ByLayer
 62
  256
370
   -1
100
AcDbLine
 10
-66.10230000000001
 20
134.649
 11
-66.10230000000001
 21
134.649
  0
ARC
  5
680
100
AcDbEntity
  8
PolarPattern002
  6
ByLayer
 62
  256
370
   -1
100
AcDbCircle
 10
0
 20
0
 40
150
100
AcDbArc
 50
63.8514
 51
64.25149999999999
  0
LINE
  5
681
100
AcDbEntity
  8
PolarPattern002
  6
ByLayer
 62
  256
370
   -1
100
AcDbLine
 10
65.16329999999994
 20
135.106
 11
65.16329999999994
 21
135.106
  0
ARC
  5
682
100
AcDbEntity
  8
PolarPattern002
  6
ByLayer
 62
  256
370
   -1
100
AcDbCircle
 10
0
 20
0
 40
150
100
AcDbArc
 50
63.8514
 51
64.25149999999999
  0
LINE
  5
683
100
AcDbEntity
  8
PolarPattern002
  6
ByLayer
 62
  256
370
   -1
100
AcDbLine
 10
66.10509999999999
 20
134.648
 11
66.10509999999999
 21
134.648
  0
ARC
  5
684
100
AcDbEntity
  8
PolarPattern002
  6
ByLayer
 62
  256
370
   -1
100
AcDbCircle
 10
-102.057
 20
152.742
 40
40.25
100
AcDbArc
 50
-85.7891
 51
-26.7121
  0
LINE
  5
685
100
AcDbEntity
  8
PolarPattern002
  6
ByLayer
 62
  256
370
   -1
100
AcDbLine
 10
-66.10230000000001
 20
134.649
 11
-66.10230000000001
 21
134.649
  0
ARC
  5
686
100
AcDbEntity
  8
PolarPattern002
  6
ByLayer
 62
  256
370
   -1
100
AcDbCircle
 10
-102.057
 20
152.742
 40
40.25
100
AcDbArc
 50
-85.7891
 51
-26.7121
  0
LINE
  5
687
100
AcDbEntity
  8
PolarPattern002
  6
ByLayer
 62
  256
370
   -1
100
AcDbLine
 10
-99.10130000000004
 20
112.601
 11
-99.10130000000004
 21
112.601
  0
ARC
  5
688
100
AcDbEntity
  8
PolarPattern002
  6
ByLayer
 62
  256
370
   -1
100
AcDbCircle
 10
102.0599999999999
 20
152.74
 40
40.25
100
AcDbArc
 50
-153.289
 51
-94.21210000000001
  0
LINE
  5
689
100
AcDbEntity
  8
PolarPattern002
  6
ByLayer
 62
  256
370
   -1
100
AcDbLine
 10
99.10359999999991
 20
112.599
 11
99.10359999999991
 21
112.599
  0
ARC
  5
68A
100
AcDbEntity
  8
PolarPattern002
  6
ByLayer
 62
  256
370
   -1
100
AcDbCircle
 10
102.0599999999999
 20
152.74
 40
40.25
100
AcDbArc
 50
-153.289
 51
-94.21210000000001
  0
LINE
  5
68B
100
AcDbEntity
  8
PolarPattern002
  6
ByLayer
 62
  256
370
   -1
100
AcDbLine
 10
66.10509999999999
 20
134.648
 11
66.10509999999999
 21
134.648
  0
ARC
  5
68C
100
AcDbEntity
  8
PolarPattern002
  6
ByLayer
 62
  256
370
   -1
100
AcDbCircle
 10
0
 20
0
 40
150
100
AcDbArc
 50
131.351
 51
131.751
  0
LINE
  5
68D
100
AcDbEntity
  8
PolarPattern002
  6
ByLayer
 62
  256
370
   -1
100
AcDbLine
 10
-99.10130000000004
 20
112.601
 11
-99.10130000000004
 21
112.601
  0
ARC
  5
68E
100
AcDbEntity
  8
PolarPattern002
  6
ByLayer
 62
  256
370
   -1
100
AcDbCircle
 10
0
 20
0
 40
150
100
AcDbArc
 50
131.351
 51
131.751
  0
LINE
  5
68F
100
AcDbEntity
  8
PolarPattern002
  6
ByLayer
 62
  256
370
   -1
100
AcDbLine
 10
-99.88519999999994
 20
111.906
 11
-99.88519999999994
 21
111.906
  0
ARC
  5
690
100
AcDbEntity
  8
PolarPattern002
  6
ByLayer
 62
  256
370
   -1
100
AcDbCircle
 10
0
 20
0
 40
150
100
AcDbArc
 50
48.2485
 51
48.6474
  0
LINE
  5
691
100
AcDbEntity
  8
PolarPattern002
  6
ByLayer
 62
  256
370
   -1
100
AcDbLine
 10
99.10359999999991
 20
112.599
 11
99.10359999999991
 21
112.599
  0
ARC
  5
692
100
AcDbEntity
  8
PolarPattern002
  6
ByLayer
 62
  256
370
   -1
100
AcDbCircle
 10
0
 20
0
 40
150
100
AcDbArc
 50
48.2485
 51
48.6474
  0
LINE
  5
693
100
AcDbEntity
  8
PolarPattern002
  6
ByLayer
 62
  256
370
   -1
100
AcDbLine
 10
99.88519999999994
 20
111.906
 11
99.88519999999994
 21
111.906
  0
LINE
  5
694
100
AcDbEntity
  8
PolarPattern002
  6
ByLayer
 62
  256
370
   -1
100
AcDbLine
 10
-82.37789999999995
 20
94.39879999999999
 11
-99.88519999999994
 21
111.906
  0
LINE
  5
695
100
AcDbEntity
  8
PolarPattern002
  6
ByLayer
 62
  256
370
   -1
100
AcDbLine
 10
-99.88519999999994
 20
111.906
 11
-99.88519999999994
 21
111.906
  0
LINE
  5
696
100
AcDbEntity
  8
PolarPattern002
  6
ByLayer
 62
  256
370
   -1
100
AcDbLine
 10
-82.37789999999995
 20
94.39879999999999
 11
-99.88519999999994
 21
111.906
  0
LINE
  5
697
100
AcDbEntity
  8
PolarPattern002
  6
ByLayer
 62
  256
370
   -1
100
AcDbLine
 10
-82.37789999999995
 20
94.39879999999999
 11
-82.37789999999995
 21
94.39879999999999
  0
LINE
  5
698
100
AcDbEntity
  8
PolarPattern002
  6
ByLayer
 62
  256
370
   -1
100
AcDbLine
 10
82.37789999999995
 20
94.39879999999999
 11
99.88519999999994
 21
111.906
  0
LINE
  5
699
100
AcDbEntity
  8
PolarPattern002
  6
ByLayer
 62
  256
370
   -1
100
AcDbLine
 10
99.88519999999994
 20
111.906
 11
99.88519999999994
 21
111.906
  0
LINE
  5
69A
100
AcDbEntity
  8
PolarPattern002
  6
ByLayer
 62
  256
370
   -1
100
AcDbLine
 10
82.37789999999995
 20
94.39879999999999
 11
99.88519999999994
 21
111.906
  0
LINE
  5
69B
100
AcDbEntity
  8
PolarPattern002
  6
ByLayer
 62
  256
370
   -1
100
AcDbLine
 10
82.37789999999995
 20
94.39879999999999
 11
82.37789999999995
 21
94.39879999999999
  0
ARC
  5
69C
100
AcDbEntity
  8
PolarPattern002
  6
ByLayer
 62
  256
370
   -1
100
AcDbCircle
 10
-88.38829999999996
 20
88.3883
 40
8.5
100
AcDbArc
 50
-135
 51
45
  0
LINE
  5
69D
100
AcDbEntity
  8
PolarPattern002
  6
ByLayer
 62
  256
370
   -1
100
AcDbLine
 10
-82.37789999999995
 20
94.39879999999999
 11
-82.37789999999995
 21
94.39879999999999
  0
ARC
  5
69E
100
AcDbEntity
  8
PolarPattern002
  6
ByLayer
 62
  256
370
   -1
100
AcDbCircle
 10
-88.38829999999996
 20
88.3883
 40
8.5
100
AcDbArc
 50
-135
 51
45
  0
LINE
  5
69F
100
AcDbEntity
  8
PolarPattern002
  6
ByLayer
 62
  256
370
   -1
100
AcDbLine
 10
-94.39879999999994
 20
82.3779
 11
-94.39879999999994
 21
82.3779
  0
ARC
  5
6A0
100
AcDbEntity
  8
PolarPattern002
  6
ByLayer
 62
  256
370
   -1
100
AcDbCircle
 10
88.38830000000007
 20
88.3883
 40
8.5
100
AcDbArc
 50
135
 51
-45
  0
LINE
  5
6A1
100
AcDbEntity
  8
PolarPattern002
  6
ByLayer
 62
  256
370
   -1
100
AcDbLine
 10
94.39879999999994
 20
82.3779
 11
94.39879999999994
 21
82.3779
  0
ARC
  5
6A2
100
AcDbEntity
  8
PolarPattern002
  6
ByLayer
 62
  256
370
   -1
100
AcDbCircle
 10
88.38830000000007
 20
88.3883
 40
8.5
100
AcDbArc
 50
135
 51
-45
  0
LINE
  5
6A3
100
AcDbEntity
  8
PolarPattern002
  6
ByLayer
 62
  256
370
   -1
100
AcDbLine
 10
82.37789999999995
 20
94.39879999999999
 11
82.37789999999995
 21
94.39879999999999
  0
LINE
  5
6A4
100
AcDbEntity
  8
PolarPattern002
  6
ByLayer
 62
  256
370
   -1
100
AcDbLine
 10
-94.39879999999994
 20
82.3779
 11
-111.9059999999999
 21
99.8852
  0
LINE
  5
6A5
100
AcDbEntity
  8
PolarPattern002
  6
ByLayer
 62
  256
370
   -1
100
AcDbLine
 10
-111.9059999999999
 20
99.8852
 11
-111.9059999999999
 21
99.8852
  0
LINE
  5
6A6
100
AcDbEntity
  8
PolarPattern002
  6
ByLayer
 62
  256
370
   -1
100
AcDbLine
 10
-94.39879999999994
 20
82.3779
 11
-111.9059999999999
 21
99.8852
  0
LINE
  5
6A7
100
AcDbEntity
  8
PolarPattern002
  6
ByLayer
 62
  256
370
   -1
100
AcDbLine
 10
-94.39879999999994
 20
82.3779
 11
-94.39879999999994
 21
82.3779
  0
LINE
  5
6A8
100
AcDbEntity
  8
PolarPattern002
  6
ByLayer
 62
  256
370
   -1
100
AcDbLine
 10
94.39879999999994
 20
82.3779
 11
111.9059999999999
 21
99.8852
  0
LINE
  5
6A9
100
AcDbEntity
  8
PolarPattern002
  6
ByLayer
 62
  256
370
   -1
100
AcDbLine
 10
111.9059999999999
 20
99.8852
 11
111.9059999999999
 21
99.8852
  0
LINE
  5
6AA
100
AcDbEntity
  8
PolarPattern002
  6
ByLayer
 62
  256
370
   -1
100
AcDbLine
 10
94.39879999999994
 20
82.3779
 11
111.9059999999999
 21
99.8852
  0
LINE
  5
6AB
100
AcDbEntity
  8
PolarPattern002
  6
ByLayer
 62
  256
370
   -1
100
AcDbLine
 10
94.39879999999994
 20
82.3779
 11
94.39879999999994
 21
82.3779
  0
ARC
  5
6AC
100
AcDbEntity
  8
PolarPattern002
  6
ByLayer
 62
  256
370
   -1
100
AcDbCircle
 10
0
 20
0
 40
150
100
AcDbArc
 50
138.249
 51
138.647
  0
LINE
  5
6AD
100
AcDbEntity
  8
PolarPattern002
  6
ByLayer
 62
  256
370
   -1
100
AcDbLine
 10
-111.9059999999999
 20
99.8852
 11
-111.9059999999999
 21
99.8852
  0
ARC
  5
6AE
100
AcDbEntity
  8
PolarPattern002
  6
ByLayer
 62
  256
370
   -1
100
AcDbCircle
 10
0
 20
0
 40
150
100
AcDbArc
 50
138.249
 51
138.647
  0
LINE
  5
6AF
100
AcDbEntity
  8
PolarPattern002
  6
ByLayer
 62
  256
370
   -1
100
AcDbLine
 10
-112.599
 20
99.1036
 11
-112.599
 21
99.1036
  0
ARC
  5
6B0
100
AcDbEntity
  8
PolarPattern002
  6
ByLayer
 62
  256
370
   -1
100
AcDbCircle
 10
0
 20
0
 40
150
100
AcDbArc
 50
41.3514
 51
41.7515
  0
LINE
  5
6B1
100
AcDbEntity
  8
PolarPattern002
  6
ByLayer
 62
  256
370
   -1
100
AcDbLine
 10
111.9059999999999
 20
99.8852
 11
111.9059999999999
 21
99.8852
  0
ARC
  5
6B2
100
AcDbEntity
  8
PolarPattern002
  6
ByLayer
 62
  256
370
   -1
100
AcDbCircle
 10
0
 20
0
 40
150
100
AcDbArc
 50
41.3514
 51
41.7515
  0
LINE
  5
6B3
100
AcDbEntity
  8
PolarPattern002
  6
ByLayer
 62
  256
370
   -1
100
AcDbLine
 10
112.6010000000001
 20
99.10129999999998
 11
112.6010000000001
 21
99.10129999999998
  0
ARC
  5
6B4
100
AcDbEntity
  8
PolarPattern002
  6
ByLayer
 62
  256
370
   -1
100
AcDbCircle
 10
-152.74
 20
102.06
 40
40.25
100
AcDbArc
 50
-63.2891
 51
-4.21206
  0
LINE
  5
6B5
100
AcDbEntity
  8
PolarPattern002
  6
ByLayer
 62
  256
370
   -1
100
AcDbLine
 10
-112.599
 20
99.1036
 11
-112.599
 21
99.1036
  0
ARC
  5
6B6
100
AcDbEntity
  8
PolarPattern002
  6
ByLayer
 62
  256
370
   -1
100
AcDbCircle
 10
-152.74
 20
102.06
 40
40.25
100
AcDbArc
 50
-63.2891
 51
-4.21206
  0
LINE
  5
6B7
100
AcDbEntity
  8
PolarPattern002
  6
ByLayer
 62
  256
370
   -1
100
AcDbLine
 10
-134.648
 20
66.10509999999999
 11
-134.648
 21
66.10509999999999
  0
ARC
  5
6B8
100
AcDbEntity
  8
PolarPattern002
  6
ByLayer
 62
  256
370
   -1
100
AcDbCircle
 10
152.742
 20
102.057
 40
40.25
100
AcDbArc
 50
-175.789
 51
-116.712
  0
LINE
  5
6B9
100
AcDbEntity
  8
PolarPattern002
  6
ByLayer
 62
  256
370
   -1
100
AcDbLine
 10
134.6489999999999
 20
66.1023
 11
134.6489999999999
 21
66.1023
  0
ARC
  5
6BA
100
AcDbEntity
  8
PolarPattern002
  6
ByLayer
 62
  256
370
   -1
100
AcDbCircle
 10
152.742
 20
102.057
 40
40.25
100
AcDbArc
 50
-175.789
 51
-116.712
  0
LINE
  5
6BB
100
AcDbEntity
  8
PolarPattern002
  6
ByLayer
 62
  256
370
   -1
100
AcDbLine
 10
112.6010000000001
 20
99.10129999999998
 11
112.6010000000001
 21
99.10129999999998
  0
ARC
  5
6BC
100
AcDbEntity
  8
PolarPattern002
  6
ByLayer
 62
  256
370
   -1
100
AcDbCircle
 10
0
 20
0
 40
150
100
AcDbArc
 50
153.851
 51
154.251
  0
LINE
  5
6BD
100
AcDbEntity
  8
PolarPattern002
  6
ByLayer
 62
  256
370
   -1
100
AcDbLine
 10
-134.648
 20
66.10509999999999
 11
-134.648
 21
66.10509999999999
  0
ARC
  5
6BE
100
AcDbEntity
  8
PolarPattern002
  6
ByLayer
 62
  256
370
   -1
100
AcDbCircle
 10
0
 20
0
 40
150
100
AcDbArc
 50
153.851
 51
154.251
  0
LINE
  5
6BF
100
AcDbEntity
  8
PolarPattern002
  6
ByLayer
 62
  256
370
   -1
100
AcDbLine
 10
-135.106
 20
65.16330000000001
 11
-135.106
 21
65.16330000000001
  0
ARC
  5
6C0
100
AcDbEntity
  8
PolarPattern002
  6
ByLayer
 62
  256
370
   -1
100
AcDbCircle
 10
0
 20
0
 40
150
100
AcDbArc
 50
25.7485
 51
26.1474
  0
LINE
  5
6C1
100
AcDbEntity
  8
PolarPattern002
  6
ByLayer
 62
  256
370
   -1
100
AcDbLine
 10
134.6489999999999
 20
66.1023
 11
134.6489999999999
 21
66.1023
  0
ARC
  5
6C2
100
AcDbEntity
  8
PolarPattern002
  6
ByLayer
 62
  256
370
   -1
100
AcDbCircle
 10
0
 20
0
 40
150
100
AcDbArc
 50
25.7485
 51
26.1474
  0
LINE
  5
6C3
100
AcDbEntity
  8
PolarPattern002
  6
ByLayer
 62
  256
370
   -1
100
AcDbLine
 10
135.106
 20
65.16330000000001
 11
135.106
 21
65.16330000000001
  0
LINE
  5
6C4
100
AcDbEntity
  8
PolarPattern002
  6
ByLayer
 62
  256
370
   -1
100
AcDbLine
 10
-112.232
 20
55.6884
 11
-135.106
 21
65.16330000000001
  0
LINE
  5
6C5
100
AcDbEntity
  8
PolarPattern002
  6
ByLayer
 62
  256
370
   -1
100
AcDbLine
 10
-135.106
 20
65.16330000000001
 11
-135.106
 21
65.16330000000001
  0
LINE
  5
6C6
100
AcDbEntity
  8
PolarPattern002
  6
ByLayer
 62
  256
370
   -1
100
AcDbLine
 10
-112.232
 20
55.6884
 11
-135.106
 21
65.16330000000001
  0
LINE
  5
6C7
100
AcDbEntity
  8
PolarPattern002
  6
ByLayer
 62
  256
370
   -1
100
AcDbLine
 10
-112.232
 20
55.6884
 11
-112.232
 21
55.6884
  0
LINE
  5
6C8
100
AcDbEntity
  8
PolarPattern002
  6
ByLayer
 62
  256
370
   -1
100
AcDbLine
 10
112.232
 20
55.6884
 11
135.106
 21
65.16330000000001
  0
LINE
  5
6C9
100
AcDbEntity
  8
PolarPattern002
  6
ByLayer
 62
  256
370
   -1
100
AcDbLine
 10
135.106
 20
65.16330000000001
 11
135.106
 21
65.16330000000001
  0
LINE
  5
6CA
100
AcDbEntity
  8
PolarPattern002
  6
ByLayer
 62
  256
370
   -1
100
AcDbLine
 10
112.232
 20
55.6884
 11
135.106
 21
65.16330000000001
  0
LINE
  5
6CB
100
AcDbEntity
  8
PolarPattern002
  6
ByLayer
 62
  256
370
   -1
100
AcDbLine
 10
112.232
 20
55.6884
 11
112.232
 21
55.6884
  0
ARC
  5
6CC
100
AcDbEntity
  8
PolarPattern002
  6
ByLayer
 62
  256
370
   -1
100
AcDbCircle
 10
-115.485
 20
47.83539999999999
 40
8.5
100
AcDbArc
 50
-112.5
 51
67.5
  0
LINE
  5
6CD
100
AcDbEntity
  8
PolarPattern002
  6
ByLayer
 62
  256
370
   -1
100
AcDbLine
 10
-112.232
 20
55.6884
 11
-112.232
 21
55.6884
  0
ARC
  5
6CE
100
AcDbEntity
  8
PolarPattern002
  6
ByLayer
 62
  256
370
   -1
100
AcDbCircle
 10
-115.485
 20
47.83539999999999
 40
8.5
100
AcDbArc
 50
-112.5
 51
67.5
  0
LINE
  5
6CF
100
AcDbEntity
  8
PolarPattern002
  6
ByLayer
 62
  256
370
   -1
100
AcDbLine
 10
-118.7380000000001
 20
39.9825
 11
-118.7380000000001
 21
39.9825
  0
ARC
  5
6D0
100
AcDbEntity
  8
PolarPattern002
  6
ByLayer
 62
  256
370
   -1
100
AcDbCircle
 10
115.4849999999999
 20
47.83539999999999
 40
8.5
100
AcDbArc
 50
112.5
 51
-67.5
  0
LINE
  5
6D1
100
AcDbEntity
  8
PolarPattern002
  6
ByLayer
 62
  256
370
   -1
100
AcDbLine
 10
118.7380000000001
 20
39.9825
 11
118.7380000000001
 21
39.9825
  0
ARC
  5
6D2
100
AcDbEntity
  8
PolarPattern002
  6
ByLayer
 62
  256
370
   -1
100
AcDbCircle
 10
115.4849999999999
 20
47.83539999999999
 40
8.5
100
AcDbArc
 50
112.5
 51
-67.5
  0
LINE
  5
6D3
100
AcDbEntity
  8
PolarPattern002
  6
ByLayer
 62
  256
370
   -1
100
AcDbLine
 10
112.232
 20
55.6884
 11
112.232
 21
55.6884
  0
LINE
  5
6D4
100
AcDbEntity
  8
PolarPattern002
  6
ByLayer
 62
  256
370
   -1
100
AcDbLine
 10
-118.7380000000001
 20
39.9825
 11
-141.612
 21
49.4573
  0
LINE
  5
6D5
100
AcDbEntity
  8
PolarPattern002
  6
ByLayer
 62
  256
370
   -1
100
AcDbLine
 10
-141.612
 20
49.4573
 11
-141.612
 21
49.4573
  0
LINE
  5
6D6
100
AcDbEntity
  8
PolarPattern002
  6
ByLayer
 62
  256
370
   -1
100
AcDbLine
 10
-118.7380000000001
 20
39.9825
 11
-141.612
 21
49.4573
  0
LINE
  5
6D7
100
AcDbEntity
  8
PolarPattern002
  6
ByLayer
 62
  256
370
   -1
100
AcDbLine
 10
-118.7380000000001
 20
39.9825
 11
-118.7380000000001
 21
39.9825
  0
LINE
  5
6D8
100
AcDbEntity
  8
PolarPattern002
  6
ByLayer
 62
  256
370
   -1
100
AcDbLine
 10
118.7380000000001
 20
39.9825
 11
141.6120000000001
 21
49.4573
  0
LINE
  5
6D9
100
AcDbEntity
  8
PolarPattern002
  6
ByLayer
 62
  256
370
   -1
100
AcDbLine
 10
141.6120000000001
 20
49.4573
 11
141.6120000000001
 21
49.4573
  0
LINE
  5
6DA
100
AcDbEntity
  8
PolarPattern002
  6
ByLayer
 62
  256
370
   -1
100
AcDbLine
 10
118.7380000000001
 20
39.9825
 11
141.6120000000001
 21
49.4573
  0
LINE
  5
6DB
100
AcDbEntity
  8
PolarPattern002
  6
ByLayer
 62
  256
370
   -1
100
AcDbLine
 10
118.7380000000001
 20
39.9825
 11
118.7380000000001
 21
39.9825
  0
ARC
  5
6DC
100
AcDbEntity
  8
PolarPattern002
  6
ByLayer
 62
  256
370
   -1
100
AcDbCircle
 10
0
 20
0
 40
150
100
AcDbArc
 50
160.749
 51
161.147
  0
LINE
  5
6DD
100
AcDbEntity
  8
PolarPattern002
  6
ByLayer
 62
  256
370
   -1
100
AcDbLine
 10
-141.612
 20
49.4573
 11
-141.612
 21
49.4573
  0
ARC
  5
6DE
100
AcDbEntity
  8
PolarPattern002
  6
ByLayer
 62
  256
370
   -1
100
AcDbCircle
 10
0
 20
0
 40
150
100
AcDbArc
 50
160.749
 51
161.147
  0
LINE
  5
6DF
100
AcDbEntity
  8
PolarPattern002
  6
ByLayer
 62
  256
370
   -1
100
AcDbLine
 10
-141.953
 20
48.47020000000001
 11
-141.953
 21
48.47020000000001
  0
ARC
  5
6E0
100
AcDbEntity
  8
PolarPattern002
  6
ByLayer
 62
  256
370
   -1
100
AcDbCircle
 10
0
 20
0
 40
150
100
AcDbArc
 50
18.8514
 51
19.2515
  0
LINE
  5
6E1
100
AcDbEntity
  8
PolarPattern002
  6
ByLayer
 62
  256
370
   -1
100
AcDbLine
 10
141.6120000000001
 20
49.4573
 11
141.6120000000001
 21
49.4573
  0
ARC
  5
6E2
100
AcDbEntity
  8
PolarPattern002
  6
ByLayer
 62
  256
370
   -1
100
AcDbCircle
 10
0
 20
0
 40
150
100
AcDbArc
 50
18.8514
 51
19.2515
  0
LINE
  5
6E3
100
AcDbEntity
  8
PolarPattern002
  6
ByLayer
 62
  256
370
   -1
100
AcDbLine
 10
141.954
 20
48.46719999999999
 11
141.954
 21
48.46719999999999
  0
ARC
  5
6E4
100
AcDbEntity
  8
PolarPattern002
  6
ByLayer
 62
  256
370
   -1
100
AcDbCircle
 10
-180.17
 20
35.84
 40
40.25
100
AcDbArc
 50
-40.7891
 51
18.2879
  0
LINE
  5
6E5
100
AcDbEntity
  8
PolarPattern002
  6
ByLayer
 62
  256
370
   -1
100
AcDbLine
 10
-141.953
 20
48.47020000000001
 11
-141.953
 21
48.47020000000001
  0
ARC
  5
6E6
100
AcDbEntity
  8
PolarPattern002
  6
ByLayer
 62
  256
370
   -1
100
AcDbCircle
 10
-180.17
 20
35.84
 40
40.25
100
AcDbArc
 50
-40.7891
 51
18.2879
  0
LINE
  5
6E7
100
AcDbEntity
  8
PolarPattern002
  6
ByLayer
 62
  256
370
   -1
100
AcDbLine
 10
-149.696
 20
9.5456
 11
-149.696
 21
9.5456
  0
ARC
  5
6E8
100
AcDbEntity
  8
PolarPattern002
  6
ByLayer
 62
  256
370
   -1
100
AcDbCircle
 10
0
 20
0
 40
150
100
AcDbArc
 50
176.351
 51
176.751
  0
LINE
  5
6E9
100
AcDbEntity
  8
PolarPattern002
  6
ByLayer
 62
  256
370
   -1
100
AcDbLine
 10
-149.696
 20
9.5456
 11
-149.696
 21
9.5456
  0
ARC
  5
6EA
100
AcDbEntity
  8
PolarPattern002
  6
ByLayer
 62
  256
370
   -1
100
AcDbCircle
 10
0
 20
0
 40
150
100
AcDbArc
 50
176.351
 51
176.751
  0
LINE
  5
6EB
100
AcDbEntity
  8
PolarPattern002
  6
ByLayer
 62
  256
370
   -1
100
AcDbLine
 10
-149.759
 20
8.5
 11
-149.759
 21
8.5
  0
LINE
  5
6EC
100
AcDbEntity
  8
PolarPattern002
  6
ByLayer
 62
  256
370
   -1
100
AcDbLine
 10
-125
 20
8.5
 11
-149.759
 21
8.5
  0
LINE
  5
6ED
100
AcDbEntity
  8
PolarPattern002
  6
ByLayer
 62
  256
370
   -1
100
AcDbLine
 10
-149.759
 20
8.5
 11
-149.759
 21
8.5
  0
LINE
  5
6EE
100
AcDbEntity
  8
PolarPattern002
  6
ByLayer
 62
  256
370
   -1
100
AcDbLine
 10
-125
 20
8.5
 11
-149.759
 21
8.5
  0
LINE
  5
6EF
100
AcDbEntity
  8
PolarPattern002
  6
ByLayer
 62
  256
370
   -1
100
AcDbLine
 10
-125
 20
8.5
 11
-125
 21
8.5
  0
ARC
  5
6F0
100
AcDbEntity
  8
PolarPattern002
  6
ByLayer
 62
  256
370
   -1
100
AcDbCircle
 10
-125
 20
0
 40
8.5
100
AcDbArc
 50
-90
 51
90
  0
LINE
  5
6F1
100
AcDbEntity
  8
PolarPattern002
  6
ByLayer
 62
  256
370
   -1
100
AcDbLine
 10
-125
 20
8.5
 11
-125
 21
8.5
  0
ARC
  5
6F2
100
AcDbEntity
  8
PolarPattern002
  6
ByLayer
 62
  256
370
   -1
100
AcDbCircle
 10
-125
 20
1.4210854715202e-14
 40
8.5
100
AcDbArc
 50
-90
 51
90
  0
LINE
  5
6F3
100
AcDbEntity
  8
PolarPattern002
  6
ByLayer
 62
  256
370
   -1
100
AcDbLine
 10
-125
 20
-8.5
 11
-125
 21
-8.5
  0
ARC
  5
6F4
100
AcDbEntity
  8
PolarPattern002
  6
ByLayer
 62
  256
370
   -1
100
AcDbCircle
 10
125
 20
0
 40
8.5
100
AcDbArc
 50
90
 51
-90
  0
LINE
  5
6F5
100
AcDbEntity
  8
PolarPattern002
  6
ByLayer
 62
  256
370
   -1
100
AcDbLine
 10
125
 20
-8.5
 11
125
 21
-8.5
  0
ARC
  5
6F6
100
AcDbEntity
  8
PolarPattern002
  6
ByLayer
 62
  256
370
   -1
100
AcDbCircle
 10
125
 20
-2.842170943040401e-14
 40
8.5
100
AcDbArc
 50
90
 51
-90
  0
LINE
  5
6F7
100
AcDbEntity
  8
PolarPattern002
  6
ByLayer
 62
  256
370
   -1
100
AcDbLine
 10
125
 20
8.5
 11
125
 21
8.5
  0
LINE
  5
6F8
100
AcDbEntity
  8
PolarPattern002
  6
ByLayer
 62
  256
370
   -1
100
AcDbLine
 10
-125
 20
-8.5
 11
-149.759
 21
-8.5
  0
LINE
  5
6F9
100
AcDbEntity
  8
PolarPattern002
  6
ByLayer
 62
  256
370
   -1
100
AcDbLine
 10
-149.759
 20
-8.5
 11
-149.759
 21
-8.5
  0
LINE
  5
6FA
100
AcDbEntity
  8
PolarPattern002
  6
ByLayer
 62
  256
370
   -1
100
AcDbLine
 10
-125
 20
-8.5
 11
-149.759
 21
-8.5
  0
LINE
  5
6FB
100
AcDbEntity
  8
PolarPattern002
  6
ByLayer
 62
  256
370
   -1
100
AcDbLine
 10
-125
 20
-8.5
 11
-125
 21
-8.5
  0
LINE
  5
6FC
100
AcDbEntity
  8
PolarPattern002
  6
ByLayer
 62
  256
370
   -1
100
AcDbLine
 10
125
 20
-8.5
 11
149.759
 21
-8.5
  0
LINE
  5
6FD
100
AcDbEntity
  8
PolarPattern002
  6
ByLayer
 62
  256
370
   -1
100
AcDbLine
 10
149.759
 20
-8.5
 11
149.759
 21
-8.5
  0
LINE
  5
6FE
100
AcDbEntity
  8
PolarPattern002
  6
ByLayer
 62
  256
370
   -1
100
AcDbLine
 10
125
 20
-8.5
 11
149.759
 21
-8.5
  0
LINE
  5
6FF
100
AcDbEntity
  8
PolarPattern002
  6
ByLayer
 62
  256
370
   -1
100
AcDbLine
 10
125
 20
-8.5
 11
125
 21
-8.5
  0
ARC
  5
700
100
AcDbEntity
  8
PolarPattern002
  6
ByLayer
 62
  256
370
   -1
100
AcDbCircle
 10
0
 20
0
 40
150
100
AcDbArc
 50
-176.751
 51
-176.353
  0
LINE
  5
701
100
AcDbEntity
  8
PolarPattern002
  6
ByLayer
 62
  256
370
   -1
100
AcDbLine
 10
-149.759
 20
-8.5
 11
-149.759
 21
-8.5
  0
ARC
  5
702
100
AcDbEntity
  8
PolarPattern002
  6
ByLayer
 62
  256
370
   -1
100
AcDbCircle
 10
0
 20
0
 40
150
100
AcDbArc
 50
-176.751
 51
-176.353
  0
LINE
  5
703
100
AcDbEntity
  8
PolarPattern002
  6
ByLayer
 62
  256
370
   -1
100
AcDbLine
 10
-149.696
 20
-9.542470000000002
 11
-149.696
 21
-9.542470000000002
  0
ARC
  5
704
100
AcDbEntity
  8
PolarPattern002
  6
ByLayer
 62
  256
370
   -1
100
AcDbCircle
 10
0
 20
0
 40
150
100
AcDbArc
 50
-3.64862
 51
-3.2485
  0
LINE
  5
705
100
AcDbEntity
  8
PolarPattern002
  6
ByLayer
 62
  256
370
   -1
100
AcDbLine
 10
149.6959999999999
 20
-9.5456
 11
149.6959999999999
 21
-9.5456
  0
ARC
  5
706
100
AcDbEntity
  8
PolarPattern002
  6
ByLayer
 62
  256
370
   -1
100
AcDbCircle
 10
0
 20
0
 40
150
100
AcDbArc
 50
-3.64862
 51
-3.2485
  0
LINE
  5
707
100
AcDbEntity
  8
PolarPattern002
  6
ByLayer
 62
  256
370
   -1
100
AcDbLine
 10
149.759
 20
-8.5
 11
149.759
 21
-8.5
  0
ARC
  5
708
100
AcDbEntity
  8
PolarPattern002
  6
ByLayer
 62
  256
370
   -1
100
AcDbCircle
 10
-180.171
 20
-35.8362
 40
40.25
100
AcDbArc
 50
-18.2891
 51
40.7879
  0
LINE
  5
709
100
AcDbEntity
  8
PolarPattern002
  6
ByLayer
 62
  256
370
   -1
100
AcDbLine
 10
-149.696
 20
-9.542470000000002
 11
-149.696
 21
-9.542470000000002
  0
ARC
  5
70A
100
AcDbEntity
  8
PolarPattern002
  6
ByLayer
 62
  256
370
   -1
100
AcDbCircle
 10
-180.171
 20
-35.8362
 40
40.25
100
AcDbArc
 50
-18.2891
 51
40.7879
  0
LINE
  5
70B
100
AcDbEntity
  8
PolarPattern002
  6
ByLayer
 62
  256
370
   -1
100
AcDbLine
 10
-141.954
 20
-48.4672
 11
-141.954
 21
-48.4672
  0
ARC
  5
70C
100
AcDbEntity
  8
PolarPattern002
  6
ByLayer
 62
  256
370
   -1
100
AcDbCircle
 10
180.1700000000001
 20
-35.84
 40
40.25
100
AcDbArc
 50
139.211
 51
-161.712
  0
LINE
  5
70D
100
AcDbEntity
  8
PolarPattern002
  6
ByLayer
 62
  256
370
   -1
100
AcDbLine
 10
141.953
 20
-48.4702
 11
141.953
 21
-48.4702
  0
ARC
  5
70E
100
AcDbEntity
  8
PolarPattern002
  6
ByLayer
 62
  256
370
   -1
100
AcDbCircle
 10
180.1700000000001
 20
-35.84
 40
40.25
100
AcDbArc
 50
139.211
 51
-161.712
  0
LINE
  5
70F
100
AcDbEntity
  8
PolarPattern002
  6
ByLayer
 62
  256
370
   -1
100
AcDbLine
 10
149.6959999999999
 20
-9.5456
 11
149.6959999999999
 21
-9.5456
  0
ARC
  5
710
100
AcDbEntity
  8
PolarPattern002
  6
ByLayer
 62
  256
370
   -1
100
AcDbCircle
 10
0
 20
0
 40
150
100
AcDbArc
 50
-161.149
 51
-160.749
  0
LINE
  5
711
100
AcDbEntity
  8
PolarPattern002
  6
ByLayer
 62
  256
370
   -1
100
AcDbLine
 10
-141.954
 20
-48.4672
 11
-141.954
 21
-48.4672
  0
ARC
  5
712
100
AcDbEntity
  8
PolarPattern002
  6
ByLayer
 62
  256
370
   -1
100
AcDbCircle
 10
0
 20
0
 40
150
100
AcDbArc
 50
-161.149
 51
-160.749
  0
LINE
  5
713
100
AcDbEntity
  8
PolarPattern002
  6
ByLayer
 62
  256
370
   -1
100
AcDbLine
 10
-141.612
 20
-49.4573
 11
-141.612
 21
-49.4573
  0
ARC
  5
714
100
AcDbEntity
  8
PolarPattern002
  6
ByLayer
 62
  256
370
   -1
100
AcDbCircle
 10
0
 20
0
 40
150
100
AcDbArc
 50
-19.2515
 51
-18.8526
  0
LINE
  5
715
100
AcDbEntity
  8
PolarPattern002
  6
ByLayer
 62
  256
370
   -1
100
AcDbLine
 10
141.6120000000001
 20
-49.4573
 11
141.6120000000001
 21
-49.4573
  0
ARC
  5
716
100
AcDbEntity
  8
PolarPattern002
  6
ByLayer
 62
  256
370
   -1
100
AcDbCircle
 10
0
 20
0
 40
150
100
AcDbArc
 50
-19.2515
 51
-18.8526
  0
LINE
  5
717
100
AcDbEntity
  8
PolarPattern002
  6
ByLayer
 62
  256
370
   -1
100
AcDbLine
 10
141.953
 20
-48.4702
 11
141.953
 21
-48.4702
  0
LINE
  5
718
100
AcDbEntity
  8
PolarPattern002
  6
ByLayer
 62
  256
370
   -1
100
AcDbLine
 10
-118.7380000000001
 20
-39.9825
 11
-141.612
 21
-49.4573
  0
LINE
  5
719
100
AcDbEntity
  8
PolarPattern002
  6
ByLayer
 62
  256
370
   -1
100
AcDbLine
 10
-141.612
 20
-49.4573
 11
-141.612
 21
-49.4573
  0
LINE
  5
71A
100
AcDbEntity
  8
PolarPattern002
  6
ByLayer
 62
  256
370
   -1
100
AcDbLine
 10
-118.7380000000001
 20
-39.9825
 11
-141.612
 21
-49.4573
  0
LINE
  5
71B
100
AcDbEntity
  8
PolarPattern002
  6
ByLayer
 62
  256
370
   -1
100
AcDbLine
 10
-118.7380000000001
 20
-39.9825
 11
-118.7380000000001
 21
-39.9825
  0
LINE
  5
71C
100
AcDbEntity
  8
PolarPattern002
  6
ByLayer
 62
  256
370
   -1
100
AcDbLine
 10
118.7380000000001
 20
-39.9825
 11
141.6120000000001
 21
-49.4573
  0
LINE
  5
71D
100
AcDbEntity
  8
PolarPattern002
  6
ByLayer
 62
  256
370
   -1
100
AcDbLine
 10
141.6120000000001
 20
-49.4573
 11
141.6120000000001
 21
-49.4573
  0
LINE
  5
71E
100
AcDbEntity
  8
PolarPattern002
  6
ByLayer
 62
  256
370
   -1
100
AcDbLine
 10
118.7380000000001
 20
-39.9825
 11
141.6120000000001
 21
-49.4573
  0
LINE
  5
71F
100
AcDbEntity
  8
PolarPattern002
  6
ByLayer
 62
  256
370
   -1
100
AcDbLine
 10
118.7380000000001
 20
-39.9825
 11
118.7380000000001
 21
-39.9825
  0
ARC
  5
720
100
AcDbEntity
  8
PolarPattern002
  6
ByLayer
 62
  256
370
   -1
100
AcDbCircle
 10
-115.485
 20
-47.8354
 40
8.5
100
AcDbArc
 50
-67.5
 51
112.5
  0
LINE
  5
721
100
AcDbEntity
  8
PolarPattern002
  6
ByLayer
 62
  256
370
   -1
100
AcDbLine
 10
-118.7380000000001
 20
-39.9825
 11
-118.7380000000001
 21
-39.9825
  0
ARC
  5
722
100
AcDbEntity
  8
PolarPattern002
  6
ByLayer
 62
  256
370
   -1
100
AcDbCircle
 10
-115.485
 20
-47.8354
 40
8.5
100
AcDbArc
 50
-67.5
 51
112.5
  0
LINE
  5
723
100
AcDbEntity
  8
PolarPattern002
  6
ByLayer
 62
  256
370
   -1
100
AcDbLine
 10
-112.232
 20
-55.6884
 11
-112.232
 21
-55.6884
  0
ARC
  5
724
100
AcDbEntity
  8
PolarPattern002
  6
ByLayer
 62
  256
370
   -1
100
AcDbCircle
 10
115.4849999999999
 20
-47.8354
 40
8.5
100
AcDbArc
 50
67.5
 51
-112.5
  0
LINE
  5
725
100
AcDbEntity
  8
PolarPattern002
  6
ByLayer
 62
  256
370
   -1
100
AcDbLine
 10
112.232
 20
-55.6884
 11
112.232
 21
-55.6884
  0
ARC
  5
726
100
AcDbEntity
  8
PolarPattern002
  6
ByLayer
 62
  256
370
   -1
100
AcDbCircle
 10
115.4849999999999
 20
-47.8354
 40
8.5
100
AcDbArc
 50
67.5
 51
-112.5
  0
LINE
  5
727
100
AcDbEntity
  8
PolarPattern002
  6
ByLayer
 62
  256
370
   -1
100
AcDbLine
 10
118.7380000000001
 20
-39.9825
 11
118.7380000000001
 21
-39.9825
  0
LINE
  5
728
100
AcDbEntity
  8
PolarPattern002
  6
ByLayer
 62
  256
370
   -1
100
AcDbLine
 10
-112.232
 20
-55.6884
 11
-135.106
 21
-65.16330000000001
  0
LINE
  5
729
100
AcDbEntity
  8
PolarPattern002
  6
ByLayer
 62
  256
370
   -1
100
AcDbLine
 10
-135.106
 20
-65.16330000000001
 11
-135.106
 21
-65.16330000000001
  0
LINE
  5
72A
100
AcDbEntity
  8
PolarPattern002
  6
ByLayer
 62
  256
370
   -1
100
AcDbLine
 10
-112.232
 20
-55.6884
 11
-135.106
 21
-65.16330000000001
  0
LINE
  5
72B
100
AcDbEntity
  8
PolarPattern002
  6
ByLayer
 62
  256
370
   -1
100
AcDbLine
 10
-112.232
 20
-55.6884
 11
-112.232
 21
-55.6884
  0
LINE
  5
72C
100
AcDbEntity
  8
PolarPattern002
  6
ByLayer
 62
  256
370
   -1
100
AcDbLine
 10
112.232
 20
-55.6884
 11
135.106
 21
-65.16330000000001
  0
LINE
  5
72D
100
AcDbEntity
  8
PolarPattern002
  6
ByLayer
 62
  256
370
   -1
100
AcDbLine
 10
135.106
 20
-65.16330000000001
 11
135.106
 21
-65.16330000000001
  0
LINE
  5
72E
100
AcDbEntity
  8
PolarPattern002
  6
ByLayer
 62
  256
370
   -1
100
AcDbLine
 10
112.232
 20
-55.6884
 11
135.106
 21
-65.16330000000001
  0
LINE
  5
72F
100
AcDbEntity
  8
PolarPattern002
  6
ByLayer
 62
  256
370
   -1
100
AcDbLine
 10
112.232
 20
-55.6884
 11
112.232
 21
-55.6884
  0
ARC
  5
730
100
AcDbEntity
  8
PolarPattern002
  6
ByLayer
 62
  256
370
   -1
100
AcDbCircle
 10
0
 20
0
 40
150
100
AcDbArc
 50
-154.251
 51
-153.853
  0
LINE
  5
731
100
AcDbEntity
  8
PolarPattern002
  6
ByLayer
 62
  256
370
   -1
100
AcDbLine
 10
-135.106
 20
-65.16330000000001
 11
-135.106
 21
-65.16330000000001
  0
ARC
  5
732
100
AcDbEntity
  8
PolarPattern002
  6
ByLayer
 62
  256
370
   -1
100
AcDbCircle
 10
0
 20
0
 40
150
100
AcDbArc
 50
-154.251
 51
-153.853
  0
LINE
  5
733
100
AcDbEntity
  8
PolarPattern002
  6
ByLayer
 62
  256
370
   -1
100
AcDbLine
 10
-134.649
 20
-66.1023
 11
-134.649
 21
-66.1023
  0
ARC
  5
734
100
AcDbEntity
  8
PolarPattern002
  6
ByLayer
 62
  256
370
   -1
100
AcDbCircle
 10
0
 20
0
 40
150
100
AcDbArc
 50
-26.1486
 51
-25.7485
  0
LINE
  5
735
100
AcDbEntity
  8
PolarPattern002
  6
ByLayer
 62
  256
370
   -1
100
AcDbLine
 10
134.6479999999999
 20
-66.10509999999999
 11
134.6479999999999
 21
-66.10509999999999
  0
ARC
  5
736
100
AcDbEntity
  8
PolarPattern002
  6
ByLayer
 62
  256
370
   -1
100
AcDbCircle
 10
0
 20
0
 40
150
100
AcDbArc
 50
-26.1486
 51
-25.7485
  0
LINE
  5
737
100
AcDbEntity
  8
PolarPattern002
  6
ByLayer
 62
  256
370
   -1
100
AcDbLine
 10
135.106
 20
-65.16330000000001
 11
135.106
 21
-65.16330000000001
  0
ARC
  5
738
100
AcDbEntity
  8
PolarPattern002
  6
ByLayer
 62
  256
370
   -1
100
AcDbCircle
 10
-152.742
 20
-102.057
 40
40.25
100
AcDbArc
 50
4.21086
 51
63.2879
  0
LINE
  5
739
100
AcDbEntity
  8
PolarPattern002
  6
ByLayer
 62
  256
370
   -1
100
AcDbLine
 10
-134.649
 20
-66.1023
 11
-134.649
 21
-66.1023
  0
ARC
  5
73A
100
AcDbEntity
  8
PolarPattern002
  6
ByLayer
 62
  256
370
   -1
100
AcDbCircle
 10
-152.742
 20
-102.057
 40
40.25
100
AcDbArc
 50
4.21086
 51
63.2879
  0
LINE
  5
73B
100
AcDbEntity
  8
PolarPattern002
  6
ByLayer
 62
  256
370
   -1
100
AcDbLine
 10
-112.601
 20
-99.10129999999999
 11
-112.601
 21
-99.10129999999999
  0
ARC
  5
73C
100
AcDbEntity
  8
PolarPattern002
  6
ByLayer
 62
  256
370
   -1
100
AcDbCircle
 10
152.74
 20
-102.06
 40
40.25
100
AcDbArc
 50
116.711
 51
175.788
  0
LINE
  5
73D
100
AcDbEntity
  8
PolarPattern002
  6
ByLayer
 62
  256
370
   -1
100
AcDbLine
 10
112.5989999999999
 20
-99.1036
 11
112.5989999999999
 21
-99.1036
  0
ARC
  5
73E
100
AcDbEntity
  8
PolarPattern002
  6
ByLayer
 62
  256
370
   -1
100
AcDbCircle
 10
152.74
 20
-102.06
 40
40.25
100
AcDbArc
 50
116.711
 51
175.788
  0
LINE
  5
73F
100
AcDbEntity
  8
PolarPattern002
  6
ByLayer
 62
  256
370
   -1
100
AcDbLine
 10
134.6479999999999
 20
-66.10509999999999
 11
134.6479999999999
 21
-66.10509999999999
  0
ARC
  5
740
100
AcDbEntity
  8
PolarPattern002
  6
ByLayer
 62
  256
370
   -1
100
AcDbCircle
 10
0
 20
0
 40
150
100
AcDbArc
 50
-138.649
 51
-138.249
  0
LINE
  5
741
100
AcDbEntity
  8
PolarPattern002
  6
ByLayer
 62
  256
370
   -1
100
AcDbLine
 10
-112.601
 20
-99.10129999999999
 11
-112.601
 21
-99.10129999999999
  0
ARC
  5
742
100
AcDbEntity
  8
PolarPattern002
  6
ByLayer
 62
  256
370
   -1
100
AcDbCircle
 10
0
 20
0
 40
150
100
AcDbArc
 50
-138.649
 51
-138.249
  0
LINE
  5
743
100
AcDbEntity
  8
PolarPattern002
  6
ByLayer
 62
  256
370
   -1
100
AcDbLine
 10
-111.9059999999999
 20
-99.8852
 11
-111.9059999999999
 21
-99.8852
  0
ARC
  5
744
100
AcDbEntity
  8
PolarPattern002
  6
ByLayer
 62
  256
370
   -1
100
AcDbCircle
 10
0
 20
0
 40
150
100
AcDbArc
 50
-41.7515
 51
-41.3526
  0
LINE
  5
745
100
AcDbEntity
  8
PolarPattern002
  6
ByLayer
 62
  256
370
   -1
100
AcDbLine
 10
111.9059999999999
 20
-99.8852
 11
111.9059999999999
 21
-99.8852
  0
ARC
  5
746
100
AcDbEntity
  8
PolarPattern002
  6
ByLayer
 62
  256
370
   -1
100
AcDbCircle
 10
0
 20
0
 40
150
100
AcDbArc
 50
-41.7515
 51
-41.3526
  0
LINE
  5
747
100
AcDbEntity
  8
PolarPattern002
  6
ByLayer
 62
  256
370
   -1
100
AcDbLine
 10
112.5989999999999
 20
-99.1036
 11
112.5989999999999
 21
-99.1036
  0
LINE
  5
748
100
AcDbEntity
  8
PolarPattern002
  6
ByLayer
 62
  256
370
   -1
100
AcDbLine
 10
-94.39879999999994
 20
-82.3779
 11
-111.9059999999999
 21
-99.8852
  0
LINE
  5
749
100
AcDbEntity
  8
PolarPattern002
  6
ByLayer
 62
  256
370
   -1
100
AcDbLine
 10
-111.9059999999999
 20
-99.8852
 11
-111.9059999999999
 21
-99.8852
  0
LINE
  5
74A
100
AcDbEntity
  8
PolarPattern002
  6
ByLayer
 62
  256
370
   -1
100
AcDbLine
 10
-94.39879999999994
 20
-82.3779
 11
-111.9059999999999
 21
-99.8852
  0
LINE
  5
74B
100
AcDbEntity
  8
PolarPattern002
  6
ByLayer
 62
  256
370
   -1
100
AcDbLine
 10
-94.39879999999994
 20
-82.3779
 11
-94.39879999999994
 21
-82.3779
  0
LINE
  5
74C
100
AcDbEntity
  8
PolarPattern002
  6
ByLayer
 62
  256
370
   -1
100
AcDbLine
 10
94.39879999999994
 20
-82.3779
 11
111.9059999999999
 21
-99.8852
  0
LINE
  5
74D
100
AcDbEntity
  8
PolarPattern002
  6
ByLayer
 62
  256
370
   -1
100
AcDbLine
 10
111.9059999999999
 20
-99.8852
 11
111.9059999999999
 21
-99.8852
  0
LINE
  5
74E
100
AcDbEntity
  8
PolarPattern002
  6
ByLayer
 62
  256
370
   -1
100
AcDbLine
 10
94.39879999999994
 20
-82.3779
 11
111.9059999999999
 21
-99.8852
  0
LINE
  5
74F
100
AcDbEntity
  8
PolarPattern002
  6
ByLayer
 62
  256
370
   -1
100
AcDbLine
 10
94.39879999999994
 20
-82.3779
 11
94.39879999999994
 21
-82.3779
  0
ARC
  5
750
100
AcDbEntity
  8
PolarPattern002
  6
ByLayer
 62
  256
370
   -1
100
AcDbCircle
 10
-88.38829999999996
 20
-88.3883
 40
8.5
100
AcDbArc
 50
-45
 51
135
  0
LINE
  5
751
100
AcDbEntity
  8
PolarPattern002
  6
ByLayer
 62
  256
370
   -1
100
AcDbLine
 10
-94.39879999999994
 20
-82.3779
 11
-94.39879999999994
 21
-82.3779
  0
ARC
  5
752
100
AcDbEntity
  8
PolarPattern002
  6
ByLayer
 62
  256
370
   -1
100
AcDbCircle
 10
-88.38829999999996
 20
-88.3883
 40
8.5
100
AcDbArc
 50
-45
 51
135
  0
LINE
  5
753
100
AcDbEntity
  8
PolarPattern002
  6
ByLayer
 62
  256
370
   -1
100
AcDbLine
 10
-82.37789999999995
 20
-94.39879999999999
 11
-82.37789999999995
 21
-94.39879999999999
  0
ARC
  5
754
100
AcDbEntity
  8
PolarPattern002
  6
ByLayer
 62
  256
370
   -1
100
AcDbCircle
 10
88.38830000000007
 20
-88.3883
 40
8.5
100
AcDbArc
 50
45
 51
-135
  0
LINE
  5
755
100
AcDbEntity
  8
PolarPattern002
  6
ByLayer
 62
  256
370
   -1
100
AcDbLine
 10
82.37789999999995
 20
-94.39879999999999
 11
82.37789999999995
 21
-94.39879999999999
  0
ARC
  5
756
100
AcDbEntity
  8
PolarPattern002
  6
ByLayer
 62
  256
370
   -1
100
AcDbCircle
 10
88.38830000000007
 20
-88.3883
 40
8.5
100
AcDbArc
 50
45
 51
-135
  0
LINE
  5
757
100
AcDbEntity
  8
PolarPattern002
  6
ByLayer
 62
  256
370
   -1
100
AcDbLine
 10
94.39879999999994
 20
-82.3779
 11
94.39879999999994
 21
-82.3779
  0
LINE
  5
758
100
AcDbEntity
  8
PolarPattern002
  6
ByLayer
 62
  256
370
   -1
100
AcDbLine
 10
-82.37789999999995
 20
-94.39879999999999
 11
-99.88519999999994
 21
-111.906
  0
LINE
  5
759
100
AcDbEntity
  8
PolarPattern002
  6
ByLayer
 62
  256
370
   -1
100
AcDbLine
 10
-99.88519999999994
 20
-111.906
 11
-99.88519999999994
 21
-111.906
  0
LINE
  5
75A
100
AcDbEntity
  8
PolarPattern002
  6
ByLayer
 62
  256
370
   -1
100
AcDbLine
 10
-82.37789999999995
 20
-94.39879999999999
 11
-99.88519999999994
 21
-111.906
  0
LINE
  5
75B
100
AcDbEntity
  8
PolarPattern002
  6
ByLayer
 62
  256
370
   -1
100
AcDbLine
 10
-82.37789999999995
 20
-94.39879999999999
 11
-82.37789999999995
 21
-94.39879999999999
  0
LINE
  5
75C
100
AcDbEntity
  8
PolarPattern002
  6
ByLayer
 62
  256
370
   -1
100
AcDbLine
 10
82.37789999999995
 20
-94.39879999999999
 11
99.88519999999994
 21
-111.906
  0
LINE
  5
75D
100
AcDbEntity
  8
PolarPattern002
  6
ByLayer
 62
  256
370
   -1
100
AcDbLine
 10
99.88519999999994
 20
-111.906
 11
99.88519999999994
 21
-111.906
  0
LINE
  5
75E
100
AcDbEntity
  8
PolarPattern002
  6
ByLayer
 62
  256
370
   -1
100
AcDbLine
 10
82.37789999999995
 20
-94.39879999999999
 11
99.88519999999994
 21
-111.906
  0
LINE
  5
75F
100
AcDbEntity
  8
PolarPattern002
  6
ByLayer
 62
  256
370
   -1
100
AcDbLine
 10
82.37789999999995
 20
-94.39879999999999
 11
82.37789999999995
 21
-94.39879999999999
  0
ARC
  5
760
100
AcDbEntity
  8
PolarPattern002
  6
ByLayer
 62
  256
370
   -1
100
AcDbCircle
 10
0
 20
0
 40
150
100
AcDbArc
 50
-131.751
 51
-131.353
  0
LINE
  5
761
100
AcDbEntity
  8
PolarPattern002
  6
ByLayer
 62
  256
370
   -1
100
AcDbLine
 10
-99.88519999999994
 20
-111.906
 11
-99.88519999999994
 21
-111.906
  0
ARC
  5
762
100
AcDbEntity
  8
PolarPattern002
  6
ByLayer
 62
  256
370
   -1
100
AcDbCircle
 10
0
 20
0
 40
150
100
AcDbArc
 50
-131.751
 51
-131.353
  0
LINE
  5
763
100
AcDbEntity
  8
PolarPattern002
  6
ByLayer
 62
  256
370
   -1
100
AcDbLine
 10
-99.10360000000003
 20
-112.599
 11
-99.10360000000003
 21
-112.599
  0
ARC
  5
764
100
AcDbEntity
  8
PolarPattern002
  6
ByLayer
 62
  256
370
   -1
100
AcDbCircle
 10
0
 20
0
 40
150
100
AcDbArc
 50
-48.6486
 51
-48.2485
  0
LINE
  5
765
100
AcDbEntity
  8
PolarPattern002
  6
ByLayer
 62
  256
370
   -1
100
AcDbLine
 10
99.10130000000004
 20
-112.601
 11
99.10130000000004
 21
-112.601
  0
ARC
  5
766
100
AcDbEntity
  8
PolarPattern002
  6
ByLayer
 62
  256
370
   -1
100
AcDbCircle
 10
0
 20
0
 40
150
100
AcDbArc
 50
-48.6486
 51
-48.2485
  0
LINE
  5
767
100
AcDbEntity
  8
PolarPattern002
  6
ByLayer
 62
  256
370
   -1
100
AcDbLine
 10
99.88519999999994
 20
-111.906
 11
99.88519999999994
 21
-111.906
  0
ARC
  5
768
100
AcDbEntity
  8
PolarPattern002
  6
ByLayer
 62
  256
370
   -1
100
AcDbCircle
 10
-102.0599999999999
 20
-152.74
 40
40.25
100
AcDbArc
 50
26.7109
 51
85.78789999999999
  0
LINE
  5
769
100
AcDbEntity
  8
PolarPattern002
  6
ByLayer
 62
  256
370
   -1
100
AcDbLine
 10
-99.10360000000003
 20
-112.599
 11
-99.10360000000003
 21
-112.599
  0
ARC
  5
76A
100
AcDbEntity
  8
PolarPattern002
  6
ByLayer
 62
  256
370
   -1
100
AcDbCircle
 10
-102.0599999999999
 20
-152.74
 40
40.25
100
AcDbArc
 50
26.7109
 51
85.78789999999999
  0
LINE
  5
76B
100
AcDbEntity
  8
PolarPattern002
  6
ByLayer
 62
  256
370
   -1
100
AcDbLine
 10
-66.10509999999999
 20
-134.648
 11
-66.10509999999999
 21
-134.648
  0
ARC
  5
76C
100
AcDbEntity
  8
PolarPattern002
  6
ByLayer
 62
  256
370
   -1
100
AcDbCircle
 10
102.057
 20
-152.742
 40
40.25
100
AcDbArc
 50
94.2109
 51
153.288
  0
LINE
  5
76D
100
AcDbEntity
  8
PolarPattern002
  6
ByLayer
 62
  256
370
   -1
100
AcDbLine
 10
66.10230000000001
 20
-134.649
 11
66.10230000000001
 21
-134.649
  0
ARC
  5
76E
100
AcDbEntity
  8
PolarPattern002
  6
ByLayer
 62
  256
370
   -1
100
AcDbCircle
 10
102.057
 20
-152.742
 40
40.25
100
AcDbArc
 50
94.2109
 51
153.288
  0
LINE
  5
76F
100
AcDbEntity
  8
PolarPattern002
  6
ByLayer
 62
  256
370
   -1
100
AcDbLine
 10
99.10130000000004
 20
-112.601
 11
99.10130000000004
 21
-112.601
  0
ARC
  5
770
100
AcDbEntity
  8
PolarPattern002
  6
ByLayer
 62
  256
370
   -1
100
AcDbCircle
 10
0
 20
0
 40
150
100
AcDbArc
 50
-116.149
 51
-115.749
  0
LINE
  5
771
100
AcDbEntity
  8
PolarPattern002
  6
ByLayer
 62
  256
370
   -1
100
AcDbLine
 10
-66.10509999999999
 20
-134.648
 11
-66.10509999999999
 21
-134.648
  0
ARC
  5
772
100
AcDbEntity
  8
PolarPattern002
  6
ByLayer
 62
  256
370
   -1
100
AcDbCircle
 10
0
 20
0
 40
150
100
AcDbArc
 50
-116.149
 51
-115.749
  0
LINE
  5
773
100
AcDbEntity
  8
PolarPattern002
  6
ByLayer
 62
  256
370
   -1
100
AcDbLine
 10
-65.16330000000005
 20
-135.106
 11
-65.16330000000005
 21
-135.106
  0
ARC
  5
774
100
AcDbEntity
  8
PolarPattern002
  6
ByLayer
 62
  256
370
   -1
100
AcDbCircle
 10
0
 20
0
 40
150
100
AcDbArc
 50
-64.25149999999999
 51
-63.8526
  0
LINE
  5
775
100
AcDbEntity
  8
PolarPattern002
  6
ByLayer
 62
  256
370
   -1
100
AcDbLine
 10
65.16329999999994
 20
-135.106
 11
65.16329999999994
 21
-135.106
  0
ARC
  5
776
100
AcDbEntity
  8
PolarPattern002
  6
ByLayer
 62
  256
370
   -1
100
AcDbCircle
 10
0
 20
0
 40
150
100
AcDbArc
 50
-64.25149999999999
 51
-63.8526
  0
LINE
  5
777
100
AcDbEntity
  8
PolarPattern002
  6
ByLayer
 62
  256
370
   -1
100
AcDbLine
 10
66.10230000000001
 20
-134.649
 11
66.10230000000001
 21
-134.649
  0
LINE
  5
778
100
AcDbEntity
  8
PolarPattern002
  6
ByLayer
 62
  256
370
   -1
100
AcDbLine
 10
-55.6884
 20
-112.232
 11
-65.16330000000005
 21
-135.106
  0
LINE
  5
779
100
AcDbEntity
  8
PolarPattern002
  6
ByLayer
 62
  256
370
   -1
100
AcDbLine
 10
-65.16330000000005
 20
-135.106
 11
-65.16330000000005
 21
-135.106
  0
LINE
  5
77A
100
AcDbEntity
  8
PolarPattern002
  6
ByLayer
 62
  256
370
   -1
100
AcDbLine
 10
-55.6884
 20
-112.232
 11
-65.16330000000005
 21
-135.106
  0
LINE
  5
77B
100
AcDbEntity
  8
PolarPattern002
  6
ByLayer
 62
  256
370
   -1
100
AcDbLine
 10
-55.6884
 20
-112.232
 11
-55.6884
 21
-112.232
  0
LINE
  5
77C
100
AcDbEntity
  8
PolarPattern002
  6
ByLayer
 62
  256
370
   -1
100
AcDbLine
 10
55.6884
 20
-112.232
 11
65.16329999999994
 21
-135.106
  0
LINE
  5
77D
100
AcDbEntity
  8
PolarPattern002
  6
ByLayer
 62
  256
370
   -1
100
AcDbLine
 10
65.16329999999994
 20
-135.106
 11
65.16329999999994
 21
-135.106
  0
LINE
  5
77E
100
AcDbEntity
  8
PolarPattern002
  6
ByLayer
 62
  256
370
   -1
100
AcDbLine
 10
55.6884
 20
-112.232
 11
65.16329999999994
 21
-135.106
  0
LINE
  5
77F
100
AcDbEntity
  8
PolarPattern002
  6
ByLayer
 62
  256
370
   -1
100
AcDbLine
 10
55.6884
 20
-112.232
 11
55.6884
 21
-112.232
  0
ARC
  5
780
100
AcDbEntity
  8
PolarPattern002
  6
ByLayer
 62
  256
370
   -1
100
AcDbCircle
 10
-47.83540000000005
 20
-115.485
 40
8.5
100
AcDbArc
 50
-22.5
 51
157.5
  0
LINE
  5
781
100
AcDbEntity
  8
PolarPattern002
  6
ByLayer
 62
  256
370
   -1
100
AcDbLine
 10
-55.6884
 20
-112.232
 11
-55.6884
 21
-112.232
  0
ARC
  5
782
100
AcDbEntity
  8
PolarPattern002
  6
ByLayer
 62
  256
370
   -1
100
AcDbCircle
 10
-47.83540000000005
 20
-115.485
 40
8.5
100
AcDbArc
 50
-22.5
 51
157.5
  0
LINE
  5
783
100
AcDbEntity
  8
PolarPattern002
  6
ByLayer
 62
  256
370
   -1
100
AcDbLine
 10
-39.98249999999996
 20
-118.738
 11
-39.98249999999996
 21
-118.738
  0
ARC
  5
784
100
AcDbEntity
  8
PolarPattern002
  6
ByLayer
 62
  256
370
   -1
100
AcDbCircle
 10
47.83540000000005
 20
-115.485
 40
8.5
100
AcDbArc
 50
22.5
 51
-157.5
  0
LINE
  5
785
100
AcDbEntity
  8
PolarPattern002
  6
ByLayer
 62
  256
370
   -1
100
AcDbLine
 10
39.98249999999996
 20
-118.738
 11
39.98249999999996
 21
-118.738
  0
ARC
  5
786
100
AcDbEntity
  8
PolarPattern002
  6
ByLayer
 62
  256
370
   -1
100
AcDbCircle
 10
47.83540000000005
 20
-115.485
 40
8.5
100
AcDbArc
 50
22.5
 51
-157.5
  0
LINE
  5
787
100
AcDbEntity
  8
PolarPattern002
  6
ByLayer
 62
  256
370
   -1
100
AcDbLine
 10
55.6884
 20
-112.232
 11
55.6884
 21
-112.232
  0
LINE
  5
788
100
AcDbEntity
  8
PolarPattern002
  6
ByLayer
 62
  256
370
   -1
100
AcDbLine
 10
-39.98249999999996
 20
-118.738
 11
-49.45730000000003
 21
-141.612
  0
LINE
  5
789
100
AcDbEntity
  8
PolarPattern002
  6
ByLayer
 62
  256
370
   -1
100
AcDbLine
 10
-49.45730000000003
 20
-141.612
 11
-49.45730000000003
 21
-141.612
  0
LINE
  5
78A
100
AcDbEntity
  8
PolarPattern002
  6
ByLayer
 62
  256
370
   -1
100
AcDbLine
 10
-39.98249999999996
 20
-118.738
 11
-49.45730000000003
 21
-141.612
  0
LINE
  5
78B
100
AcDbEntity
  8
PolarPattern002
  6
ByLayer
 62
  256
370
   -1
100
AcDbLine
 10
-39.98249999999996
 20
-118.738
 11
-39.98249999999996
 21
-118.738
  0
LINE
  5
78C
100
AcDbEntity
  8
PolarPattern002
  6
ByLayer
 62
  256
370
   -1
100
AcDbLine
 10
39.98249999999996
 20
-118.738
 11
49.45730000000003
 21
-141.612
  0
LINE
  5
78D
100
AcDbEntity
  8
PolarPattern002
  6
ByLayer
 62
  256
370
   -1
100
AcDbLine
 10
49.45730000000003
 20
-141.612
 11
49.45730000000003
 21
-141.612
  0
LINE
  5
78E
100
AcDbEntity
  8
PolarPattern002
  6
ByLayer
 62
  256
370
   -1
100
AcDbLine
 10
39.98249999999996
 20
-118.738
 11
49.45730000000003
 21
-141.612
  0
LINE
  5
78F
100
AcDbEntity
  8
PolarPattern002
  6
ByLayer
 62
  256
370
   -1
100
AcDbLine
 10
39.98249999999996
 20
-118.738
 11
39.98249999999996
 21
-118.738
  0
ARC
  5
790
100
AcDbEntity
  8
PolarPattern002
  6
ByLayer
 62
  256
370
   -1
100
AcDbCircle
 10
0
 20
0
 40
150
100
AcDbArc
 50
-109.251
 51
-108.853
  0
LINE
  5
791
100
AcDbEntity
  8
PolarPattern002
  6
ByLayer
 62
  256
370
   -1
100
AcDbLine
 10
-49.45730000000003
 20
-141.612
 11
-49.45730000000003
 21
-141.612
  0
ARC
  5
792
100
AcDbEntity
  8
PolarPattern002
  6
ByLayer
 62
  256
370
   -1
100
AcDbCircle
 10
0
 20
0
 40
150
100
AcDbArc
 50
-109.251
 51
-108.853
  0
LINE
  5
793
100
AcDbEntity
  8
PolarPattern002
  6
ByLayer
 62
  256
370
   -1
100
AcDbLine
 10
-48.47019999999998
 20
-141.953
 11
-48.47019999999998
 21
-141.953
  0
ARC
  5
794
100
AcDbEntity
  8
PolarPattern002
  6
ByLayer
 62
  256
370
   -1
100
AcDbCircle
 10
0
 20
0
 40
150
100
AcDbArc
 50
-71.1486
 51
-70.74850000000001
  0
LINE
  5
795
100
AcDbEntity
  8
PolarPattern002
  6
ByLayer
 62
  256
370
   -1
100
AcDbLine
 10
48.46720000000005
 20
-141.954
 11
48.46720000000005
 21
-141.954
  0
ARC
  5
796
100
AcDbEntity
  8
PolarPattern002
  6
ByLayer
 62
  256
370
   -1
100
AcDbCircle
 10
0
 20
0
 40
150
100
AcDbArc
 50
-71.1486
 51
-70.74850000000001
  0
LINE
  5
797
100
AcDbEntity
  8
PolarPattern002
  6
ByLayer
 62
  256
370
   -1
100
AcDbLine
 10
49.45730000000003
 20
-141.612
 11
49.45730000000003
 21
-141.612
  0
ARC
  5
798
100
AcDbEntity
  8
PolarPattern002
  6
ByLayer
 62
  256
370
   -1
100
AcDbCircle
 10
-35.84000000000003
 20
-180.17
 40
40.25
100
AcDbArc
 50
49.2109
 51
108.288
  0
LINE
  5
799
100
AcDbEntity
  8
PolarPattern002
  6
ByLayer
 62
  256
370
   -1
100
AcDbLine
 10
-48.47019999999998
 20
-141.953
 11
-48.47019999999998
 21
-141.953
  0
ARC
  5
79A
100
AcDbEntity
  8
PolarPattern002
  6
ByLayer
 62
  256
370
   -1
100
AcDbCircle
 10
-35.84000000000003
 20
-180.17
 40
40.25
100
AcDbArc
 50
49.2109
 51
108.288
  0
LINE
  5
79B
100
AcDbEntity
  8
PolarPattern002
  6
ByLayer
 62
  256
370
   -1
100
AcDbLine
 10
-9.545600000000036
 20
-149.696
 11
-9.545600000000036
 21
-149.696
  0
ARC
  5
79C
100
AcDbEntity
  8
PolarPattern002
  6
ByLayer
 62
  256
370
   -1
100
AcDbCircle
 10
35.83619999999996
 20
-180.171
 40
40.25
100
AcDbArc
 50
71.7109
 51
130.788
  0
LINE
  5
79D
100
AcDbEntity
  8
PolarPattern002
  6
ByLayer
 62
  256
370
   -1
100
AcDbLine
 10
9.54246999999998
 20
-149.696
 11
9.54246999999998
 21
-149.696
  0
ARC
  5
79E
100
AcDbEntity
  8
PolarPattern002
  6
ByLayer
 62
  256
370
   -1
100
AcDbCircle
 10
35.83619999999996
 20
-180.171
 40
40.25
100
AcDbArc
 50
71.7109
 51
130.788
  0
LINE
  5
79F
100
AcDbEntity
  8
PolarPattern002
  6
ByLayer
 62
  256
370
   -1
100
AcDbLine
 10
48.46720000000005
 20
-141.954
 11
48.46720000000005
 21
-141.954
  0
ARC
  5
7A0
100
AcDbEntity
  8
PolarPattern002
  6
ByLayer
 62
  256
370
   -1
100
AcDbCircle
 10
0
 20
0
 40
150
100
AcDbArc
 50
-93.6486
 51
-93.24850000000001
  0
LINE
  5
7A1
100
AcDbEntity
  8
PolarPattern002
  6
ByLayer
 62
  256
370
   -1
100
AcDbLine
 10
-9.545600000000036
 20
-149.696
 11
-9.545600000000036
 21
-149.696
  0
ARC
  5
7A2
100
AcDbEntity
  8
PolarPattern002
  6
ByLayer
 62
  256
370
   -1
100
AcDbCircle
 10
0
 20
0
 40
150
100
AcDbArc
 50
-93.6486
 51
-93.24850000000001
  0
LINE
  5
7A3
100
AcDbEntity
  8
PolarPattern002
  6
ByLayer
 62
  256
370
   -1
100
AcDbLine
 10
-8.5
 20
-149.759
 11
-8.5
 21
-149.759
  0
ARC
  5
7A4
100
AcDbEntity
  8
PolarPattern002
  6
ByLayer
 62
  256
370
   -1
100
AcDbCircle
 10
0
 20
0
 40
150
100
AcDbArc
 50
-86.75149999999999
 51
-86.3526
  0
LINE
  5
7A5
100
AcDbEntity
  8
PolarPattern002
  6
ByLayer
 62
  256
370
   -1
100
AcDbLine
 10
8.5
 20
-149.759
 11
8.5
 21
-149.759
  0
ARC
  5
7A6
100
AcDbEntity
  8
PolarPattern002
  6
ByLayer
 62
  256
370
   -1
100
AcDbCircle
 10
0
 20
0
 40
150
100
AcDbArc
 50
-86.75149999999999
 51
-86.3526
  0
LINE
  5
7A7
100
AcDbEntity
  8
PolarPattern002
  6
ByLayer
 62
  256
370
   -1
100
AcDbLine
 10
9.54246999999998
 20
-149.696
 11
9.54246999999998
 21
-149.696
  0
LINE
  5
7A8
100
AcDbEntity
  8
PolarPattern002
  6
ByLayer
 62
  256
370
   -1
100
AcDbLine
 10
-8.5
 20
-125
 11
-8.5
 21
-149.759
  0
LINE
  5
7A9
100
AcDbEntity
  8
PolarPattern002
  6
ByLayer
 62
  256
370
   -1
100
AcDbLine
 10
-8.5
 20
-149.759
 11
-8.5
 21
-149.759
  0
LINE
  5
7AA
100
AcDbEntity
  8
PolarPattern002
  6
ByLayer
 62
  256
370
   -1
100
AcDbLine
 10
-8.5
 20
-125
 11
-8.5
 21
-149.759
  0
LINE
  5
7AB
100
AcDbEntity
  8
PolarPattern002
  6
ByLayer
 62
  256
370
   -1
100
AcDbLine
 10
-8.5
 20
-125
 11
-8.5
 21
-125
  0
LINE
  5
7AC
100
AcDbEntity
  8
PolarPattern002
  6
ByLayer
 62
  256
370
   -1
100
AcDbLine
 10
8.5
 20
-125
 11
8.5
 21
-149.759
  0
LINE
  5
7AD
100
AcDbEntity
  8
PolarPattern002
  6
ByLayer
 62
  256
370
   -1
100
AcDbLine
 10
8.5
 20
-149.759
 11
8.5
 21
-149.759
  0
LINE
  5
7AE
100
AcDbEntity
  8
PolarPattern002
  6
ByLayer
 62
  256
370
   -1
100
AcDbLine
 10
8.5
 20
-125
 11
8.5
 21
-149.759
  0
LINE
  5
7AF
100
AcDbEntity
  8
PolarPattern002
  6
ByLayer
 62
  256
370
   -1
100
AcDbLine
 10
8.5
 20
-125
 11
8.5
 21
-125
  0
ARC
  5
7B0
100
AcDbEntity
  8
PolarPattern002
  6
ByLayer
 62
  256
370
   -1
100
AcDbCircle
 10
0
 20
-125
 40
8.5
100
AcDbArc
 50
9.57908e-14
 51
-180
  0
LINE
  5
7B1
100
AcDbEntity
  8
PolarPattern002
  6
ByLayer
 62
  256
370
   -1
100
AcDbLine
 10
-8.5
 20
-125
 11
-8.5
 21
-125
  0
ARC
  5
7B2
100
AcDbEntity
  8
PolarPattern002
  6
ByLayer
 62
  256
370
   -1
100
AcDbCircle
 10
0
 20
-125
 40
8.5
100
AcDbArc
 50
9.57908e-14
 51
-180
  0
LINE
  5
7B3
100
AcDbEntity
  8
PolarPattern002
  6
ByLayer
 62
  256
370
   -1
100
AcDbLine
 10
8.5
 20
-125
 11
8.5
 21
-125
  0
CIRCLE
  5
7B4
100
AcDbEntity
  8
PolarPattern002
  6
ByLayer
 62
  256
370
   -1
100
AcDbCircle
 10
-56.56849999999997
 20
-56.5685
 40
5.05
  0
LINE
  5
7B5
100
AcDbEntity
  8
PolarPattern002
  6
ByLayer
 62
  256
370
   -1
100
AcDbLine
 10
-60.13940000000002
 20
-52.9977
 11
-60.13940000000002
 21
-52.9977
  0
CIRCLE
  5
7B6
100
AcDbEntity
  8
PolarPattern002
  6
ByLayer
 62
  256
370
   -1
100
AcDbCircle
 10
-56.56849999999997
 20
-56.5685
 40
5.05
  0
LINE
  5
7B7
100
AcDbEntity
  8
PolarPattern002
  6
ByLayer
 62
  256
370
   -1
100
AcDbLine
 10
-60.13940000000002
 20
-52.9977
 11
-60.13940000000002
 21
-52.9977
  0
CIRCLE
  5
7B8
100
AcDbEntity
  8
PolarPattern002
  6
ByLayer
 62
  256
370
   -1
100
AcDbCircle
 10
0
 20
-80
 40
5.05
  0
LINE
  5
7B9
100
AcDbEntity
  8
PolarPattern002
  6
ByLayer
 62
  256
370
   -1
100
AcDbLine
 10
-5.049999999999955
 20
-80
 11
-5.049999999999955
 21
-80
  0
CIRCLE
  5
7BA
100
AcDbEntity
  8
PolarPattern002
  6
ByLayer
 62
  256
370
   -1
100
AcDbCircle
 10
0
 20
-80
 40
5.05
  0
LINE
  5
7BB
100
AcDbEntity
  8
PolarPattern002
  6
ByLayer
 62
  256
370
   -1
100
AcDbLine
 10
-5.049999999999955
 20
-80
 11
-5.049999999999955
 21
-80
  0
CIRCLE
  5
7BC
100
AcDbEntity
  8
PolarPattern002
  6
ByLayer
 62
  256
370
   -1
100
AcDbCircle
 10
56.56849999999997
 20
-56.5685
 40
5.05
  0
LINE
  5
7BD
100
AcDbEntity
  8
PolarPattern002
  6
ByLayer
 62
  256
370
   -1
100
AcDbLine
 10
52.99770000000001
 20
-60.1394
 11
52.99770000000001
 21
-60.1394
  0
CIRCLE
  5
7BE
100
AcDbEntity
  8
PolarPattern002
  6
ByLayer
 62
  256
370
   -1
100
AcDbCircle
 10
56.56849999999997
 20
-56.5685
 40
5.05
  0
LINE
  5
7BF
100
AcDbEntity
  8
PolarPattern002
  6
ByLayer
 62
  256
370
   -1
100
AcDbLine
 10
52.99770000000001
 20
-60.1394
 11
52.99770000000001
 21
-60.1394
  0
CIRCLE
  5
7C0
100
AcDbEntity
  8
PolarPattern002
  6
ByLayer
 62
  256
370
   -1
100
AcDbCircle
 10
80
 20
0
 40
5.05
  0
LINE
  5
7C1
100
AcDbEntity
  8
PolarPattern002
  6
ByLayer
 62
  256
370
   -1
100
AcDbLine
 10
80
 20
-5.050000000000001
 11
80
 21
-5.050000000000001
  0
CIRCLE
  5
7C2
100
AcDbEntity
  8
PolarPattern002
  6
ByLayer
 62
  256
370
   -1
100
AcDbCircle
 10
80
 20
-1.77635683940025e-14
 40
5.05
  0
LINE
  5
7C3
100
AcDbEntity
  8
PolarPattern002
  6
ByLayer
 62
  256
370
   -1
100
AcDbLine
 10
80
 20
-5.050000000000001
 11
80
 21
-5.050000000000001
  0
CIRCLE
  5
7C4
100
AcDbEntity
  8
PolarPattern002
  6
ByLayer
 62
  256
370
   -1
100
AcDbCircle
 10
-80
 20
0
 40
5.05
  0
LINE
  5
7C5
100
AcDbEntity
  8
PolarPattern002
  6
ByLayer
 62
  256
370
   -1
100
AcDbLine
 10
-80
 20
5.049999999999997
 11
-80
 21
5.049999999999997
  0
CIRCLE
  5
7C6
100
AcDbEntity
  8
PolarPattern002
  6
ByLayer
 62
  256
370
   -1
100
AcDbCircle
 10
-80
 20
7.105427357601002e-15
 40
5.05
  0
LINE
  5
7C7
100
AcDbEntity
  8
PolarPattern002
  6
ByLayer
 62
  256
370
   -1
100
AcDbLine
 10
-80
 20
5.049999999999997
 11
-80
 21
5.049999999999997
  0
CIRCLE
  5
7C8
100
AcDbEntity
  8
PolarPattern002
  6
ByLayer
 62
  256
370
   -1
100
AcDbCircle
 10
-56.56849999999997
 20
56.5685
 40
5.05
  0
LINE
  5
7C9
100
AcDbEntity
  8
PolarPattern002
  6
ByLayer
 62
  256
370
   -1
100
AcDbLine
 10
-52.99770000000001
 20
60.13939999999999
 11
-52.99770000000001
 21
60.13939999999999
  0
CIRCLE
  5
7CA
100
AcDbEntity
  8
PolarPattern002
  6
ByLayer
 62
  256
370
   -1
100
AcDbCircle
 10
-56.56849999999997
 20
56.5685
 40
5.05
  0
LINE
  5
7CB
100
AcDbEntity
  8
PolarPattern002
  6
ByLayer
 62
  256
370
   -1
100
AcDbLine
 10
-52.99770000000001
 20
60.13939999999999
 11
-52.99770000000001
 21
60.13939999999999
  0
LINE
  5
7CC
100
AcDbEntity
  8
PolarPattern002
  6
ByLayer
 62
  256
370
   -1
100
AcDbLine
 10
60
 20
0
 11
60
 21
0
  0
LINE
  5
7CD
100
AcDbEntity
  8
PolarPattern002
  6
ByLayer
 62
  256
370
   -1
100
AcDbLine
 10
60
 20
0
 11
60
 21
0
  0
CIRCLE
  5
7CE
100
AcDbEntity
  8
PolarPattern002
  6
ByLayer
 62
  256
370
   -1
100
AcDbCircle
 10
0
 20
0
 40
60
  0
CIRCLE
  5
7CF
100
AcDbEntity
  8
PolarPattern002
  6
ByLayer
 62
  256
370
   -1
100
AcDbCircle
 10
0
 20
0
 40
60
  0
CIRCLE
  5
7D0
100
AcDbEntity
  8
PolarPattern002
  6
ByLayer
 62
  256
370
   -1
100
AcDbCircle
 10
0
 20
80
 40
5.05
  0
LINE
  5
7D1
100
AcDbEntity
  8
PolarPattern002
  6
ByLayer
 62
  256
370
   -1
100
AcDbLine
 10
5.049999999999955
 20
80
 11
5.049999999999955
 21
80
  0
CIRCLE
  5
7D2
100
AcDbEntity
  8
PolarPattern002
  6
ByLayer
 62
  256
370
   -1
100
AcDbCircle
 10
0
 20
80
 40
5.05
  0
LINE
  5
7D3
100
AcDbEntity
  8
PolarPattern002
  6
ByLayer
 62
  256
370
   -1
100
AcDbLine
 10
5.049999999999955
 20
80
 11
5.049999999999955
 21
80
  0
CIRCLE
  5
7D4
100
AcDbEntity
  8
PolarPattern002
  6
ByLayer
 62
  256
370
   -1
100
AcDbCircle
 10
56.56849999999997
 20
56.5685
 40
5.05
  0
LINE
  5
7D5
100
AcDbEntity
  8
PolarPattern002
  6
ByLayer
 62
  256
370
   -1
100
AcDbLine
 10
60.13940000000002
 20
52.99770000000001
 11
60.13940000000002
 21
52.99770000000001
  0
CIRCLE
  5
7D6
100
AcDbEntity
  8
PolarPattern002
  6
ByLayer
 62
  256
370
   -1
100
AcDbCircle
 10
56.56849999999997
 20
56.5685
 40
5.05
  0
LINE
  5
7D7
100
AcDbEntity
  8
PolarPattern002
  6
ByLayer
 62
  256
370
   -1
100
AcDbLine
 10
60.13940000000002
 20
52.99770000000001
 11
60.13940000000002
 21
52.99770000000001
  0
ENDBLK
  5
63
330
61
100
AcDbEntity
  8
0
100
AcDbBlockEnd
  0
ENDSEC
  0
SECTION
  2
ENTITIES
  0
INSERT
  5
7D8
100
AcDbEntity
  8
0
  6
ByLayer
 62
  256
370
   -1
100
AcDbBlockReference
  2
Piastra Superiore-BodyPocket
 10
0
 20
0
 30
0
 41
1
 42
1
 43
0
 50
0
 70
    1
 71
    1
 44
0
 45
0
  0
INSERT
  5
7D9
100
AcDbEntity
  8
0
  6
ByLayer
 62
  256
370
   -1
100
AcDbBlockReference
  2
Piatto rotante-BodyPolarPattern002
 10
0
 20
0
 30
0
 41
1
 42
1
 43
0
 50
0
 70
    1
 71
    1
 44
0
 45
0
  0
INSERT
  5
7DA
100
AcDbEntity
  8
0
  6
ByLayer
 62
  256
370
   -1
100
AcDbBlockReference
  2
Trave porta disco-BodyPocket001
 10
-699.9999999999999
 20
0
 30
0
 41
1
 42
1
 43
0
 50
270
 70
    1
 71
    1
 44
0
 45
0
  0
INSERT
  5
7DB
100
AcDbEntity
  8
0
  6
ByLayer
 62
  256
370
   -1
100
AcDbBlockReference
  2
Croce di Malta Driver leva-BodyHole
 10
9.458886381707998e-06
 20
-210
 30
0
 41
1
 42
1
 43
0
 50
0
 70
    1
 71
    1
 44
0
 45
0
  0
INSERT
  5
7DC
100
AcDbEntity
  8
0
  6
ByLayer
 62
  256
370
   -1
100
AcDbBlockReference
  2
Croce di Malta-BodyPolarPattern002
 10
-960
 20
-340
 30
0
 41
1
 42
1
 43
0
 50
0
 70
    1
 71
    1
 44
0
 45
0
  0
INSERT
  5
7DD
100
AcDbEntity
  8
0
  6
ByLayer
 62
  256
370
   -1
100
AcDbBlockReference
  2
Croce di Malta-BodyPolarPattern002-0
 10
-960
 20
-30
 30
0
 41
1
 42
1
 43
0
 50
0
 70
    1
 71
    1
 44
0
 45
0
  0
INSERT
  5
7DE
100
AcDbEntity
  8
0
  6
ByLayer
 62
  256
370
   -1
100
AcDbBlockReference
  2
Croce di Malta Driver leva-BodyHole
 10
210
 20
9.458886368849206e-06
 30
0
 41
1
 42
1
 43
0
 50
90
 70
    1
 71
    1
 44
0
 45
0
  0
INSERT
  5
7DF
100
AcDbEntity
  8
0
  6
ByLayer
 62
  256
370
   -1
100
AcDbBlockReference
  2
Croce di Malta Driver leva-BodyHole
 10
-9.458886355990416e-06
 20
210
 30
0
 41
1
 42
1
 43
0
 50
180
 70
    1
 71
    1
 44
0
 45
0
  0
INSERT
  5
7E0
100
AcDbEntity
  8
0
  6
ByLayer
 62
  256
370
   -1
100
AcDbBlockReference
  2
Croce di Malta Driver leva-BodyHole
 10
-210
 20
-9.458886343131624e-06
 30
0
 41
1
 42
1
 43
0
 50
270
 70
    1
 71
    1
 44
0
 45
0
  0
INSERT
  5
7E1
100
AcDbEntity
  8
0
  6
ByLayer
 62
  256
370
   -1
100
AcDbBlockReference
  2
Croce di Malta Driver leva-BodyHole
 10
9.458886330272832e-06
 20
-210
 30
0
 41
1
 42
1
 43
0
 50
360
 70
    1
 71
    1
 44
0
 45
0
  0
ENDSEC
  0
SECTION
  2
OBJECTS
  0
DICTIONARY
  5
C
330
0
100
AcDbDictionary
281
    1
  3
ACAD_GROUP
350
D
  0
DICTIONARY
  5
D
330
C
100
AcDbDictionary
281
    1
  0
ENDSEC
  0
EOF
