  0
SECTION
  2
HEADER
  9
$ACADVER
  1
AC1009
  9
$INSBASE
 10
0.0
 20
0.0
 30
0.0
  9
$EXTMIN
 10
0.0
 20
0.0
 30
0.0
  9
$EXTMAX
 10
0.0
 20
0.0
 30
0.0
  0
ENDSEC
  0
SECTION
  2
TABLES
  0
TABLE
  2
VPORT
 70
0
  0
ENDTAB
  0
TABLE
  2
LTYPE
 70
1
  0
LTYPE
  2
CONTINUOUS
 70
0
  3
Solid line
 72
65
 73
0
 40
0.0
  0
ENDTAB
  0
TABLE
  2
LAYER
 70
1
  0
LAYER
  2
0
 70
64
 62
7
  6
continuous
  0
ENDTAB
  0
TABLE
  2
STYLE
 70
1
  0
STYLE
  2
STANDARD
 70
0
 40
0
 41
1.0
 50
0.0
 71
0
 42
1
 3
ARIAL.TTF
 4

  0
ENDTAB
  0
TABLE
  2
VIEW
 70
0
  0
ENDTAB
  0
ENDSEC
  0
SECTION
  2
BLOCKS
  0
BLOCK
  8
0
  2
FILLET004
 70
0
 10
0.0
 20
0.0
 30
0.0
  3
FILLET004
  0
LINE
  8
0
 62
0
 10
22.5
 20
227.0
 30
0.0
 11
22.5
 21
245.0
 31
0.0
  0
ARC
  8
0
 62
0
 10
17.5
 20
245.0
 30
0.0
 40
5.0
 50
-0.0
 51
90.0
  0
LINE
  8
0
 62
0
 10
87.5
 20
227.0
 30
0.0
 11
22.5
 21
227.0
 31
0.0
  0
LINE
  8
0
 62
0
 10
17.5
 20
250.0
 30
0.0
 11
5.0
 21
250.0
 31
0.0
  0
LINE
  8
0
 62
0
 10
87.5
 20
245.0
 30
0.0
 11
87.5
 21
227.0
 31
0.0
  0
ARC
  8
0
 62
0
 10
4.999999999999999
 20
245.0
 30
0.0
 40
5.0
 50
90.00000000000001
 51
-180.0
  0
ARC
  8
0
 62
0
 10
92.5
 20
245.0
 30
0.0
 40
5.0
 50
90.0
 51
-180.0
  0
LINE
  8
0
 62
0
 10
0.0
 20
245.0
 30
0.0
 11
0.0
 21
5.0
 31
0.0
  0
LINE
  8
0
 62
0
 10
105.0
 20
250.0
 30
0.0
 11
92.5
 21
250.0
 31
0.0
  0
ARC
  8
0
 62
0
 10
4.999999999999999
 20
4.999999999999999
 30
0.0
 40
5.0
 50
-180.0
 51
-90.0
  0
ARC
  8
0
 62
0
 10
105.0
 20
245.0
 30
0.0
 40
5.0
 50
-0.0
 51
90.0
  0
LINE
  8
0
 62
0
 10
4.999999999999999
 20
0.0
 30
0.0
 11
105.0
 21
0.0
 31
0.0
  0
LINE
  8
0
 62
0
 10
110.0
 20
4.999999999999999
 30
0.0
 11
110.0
 21
245.0
 31
0.0
  0
ARC
  8
0
 62
0
 10
105.0
 20
4.999999999999999
 30
0.0
 40
5.0
 50
-90.0
 51
0.0
  0
ARC
  8
0
 62
0
 10
100.0
 20
25.0
 30
0.0
 40
3.0
 50
-0.0
 51
-180.0
  0
LINE
  8
0
 62
0
 10
103.0
 20
24.999999999999996
 30
0.0
 11
103.0
 21
9.999999999999943
 31
0.0
  0
LINE
  8
0
 62
0
 10
97.0
 20
25.0
 30
0.0
 11
97.0
 21
10.0
 31
0.0
  0
ARC
  8
0
 62
0
 10
100.0
 20
10.0
 30
0.0
 40
3.0
 50
-180.0
 51
-0.0
  0
ARC
  8
0
 62
0
 10
100.0
 20
115.0
 30
0.0
 40
3.0
 50
-0.0
 51
-180.0
  0
LINE
  8
0
 62
0
 10
103.0
 20
115.0
 30
0.0
 11
103.0
 21
100.0
 31
0.0
  0
LINE
  8
0
 62
0
 10
97.0
 20
115.0
 30
0.0
 11
97.0
 21
100.0
 31
0.0
  0
ARC
  8
0
 62
0
 10
100.0
 20
100.0
 30
0.0
 40
3.0
 50
-180.0
 51
-0.0
  0
CIRCLE
  8
0
 62
0
 10
32.5
 20
30.0
 30
0.0
 40
5.5
  0
CIRCLE
  8
0
 62
0
 10
77.5
 20
30.0
 30
0.0
 40
5.5
  0
ARC
  8
0
 62
0
 10
10.0
 20
115.0
 30
0.0
 40
3.0
 50
-0.0
 51
-180.0
  0
LINE
  8
0
 62
0
 10
13.0
 20
115.0
 30
0.0
 11
13.0
 21
100.0
 31
0.0
  0
LINE
  8
0
 62
0
 10
7.0
 20
115.0
 30
0.0
 11
7.0
 21
100.0
 31
0.0
  0
ARC
  8
0
 62
0
 10
10.0
 20
100.0
 30
0.0
 40
3.0
 50
-180.0
 51
-0.0
  0
ARC
  8
0
 62
0
 10
10.0
 20
25.0
 30
0.0
 40
3.0
 50
0.0
 51
-180.0
  0
LINE
  8
0
 62
0
 10
13.0
 20
25.0
 30
0.0
 11
13.0
 21
10.0
 31
0.0
  0
LINE
  8
0
 62
0
 10
7.0
 20
25.0
 30
0.0
 11
7.0
 21
10.0
 31
0.0
  0
ARC
  8
0
 62
0
 10
10.0
 20
10.0
 30
0.0
 40
3.0
 50
-180.0
 51
-0.0
  0
ARC
  8
0
 62
0
 10
10.0
 20
245.0
 30
0.0
 40
3.0
 50
-0.0
 51
-180.0
  0
LINE
  8
0
 62
0
 10
13.0
 20
245.0
 30
0.0
 11
13.0
 21
230.0
 31
0.0
  0
LINE
  8
0
 62
0
 10
7.0
 20
245.0
 30
0.0
 11
7.0
 21
230.0
 31
0.0
  0
ARC
  8
0
 62
0
 10
10.0
 20
230.0
 30
0.0
 40
3.0
 50
-180.0
 51
-0.0
  0
ARC
  8
0
 62
0
 10
10.0
 20
150.0
 30
0.0
 40
3.0
 50
-0.0
 51
-180.0
  0
LINE
  8
0
 62
0
 10
13.0
 20
150.0
 30
0.0
 11
13.0
 21
135.0
 31
0.0
  0
LINE
  8
0
 62
0
 10
7.0
 20
150.0
 30
0.0
 11
7.0
 21
135.0
 31
0.0
  0
ARC
  8
0
 62
0
 10
10.0
 20
135.0
 30
0.0
 40
3.0
 50
-180.0
 51
-0.0
  0
CIRCLE
  8
0
 62
0
 10
32.5
 20
220.0
 30
0.0
 40
5.5
  0
CIRCLE
  8
0
 62
0
 10
77.5
 20
220.0
 30
0.0
 40
5.5
  0
ARC
  8
0
 62
0
 10
100.0
 20
245.0
 30
0.0
 40
3.0
 50
-0.0
 51
-180.0
  0
LINE
  8
0
 62
0
 10
103.0
 20
245.0
 30
0.0
 11
103.0
 21
230.0
 31
0.0
  0
LINE
  8
0
 62
0
 10
97.0
 20
245.0
 30
0.0
 11
97.0
 21
230.0
 31
0.0
  0
ARC
  8
0
 62
0
 10
100.0
 20
230.0
 30
0.0
 40
3.0
 50
-180.0
 51
-0.0
  0
ARC
  8
0
 62
0
 10
100.0
 20
150.0
 30
0.0
 40
3.0
 50
-0.0
 51
-180.0
  0
LINE
  8
0
 62
0
 10
103.0
 20
150.0
 30
0.0
 11
103.0
 21
135.0
 31
0.0
  0
LINE
  8
0
 62
0
 10
97.0
 20
150.0
 30
0.0
 11
97.0
 21
135.0
 31
0.0
  0
ARC
  8
0
 62
0
 10
100.0
 20
135.0
 30
0.0
 40
3.0
 50
-180.0
 51
-0.0
  0
ENDBLK
  0
ENDSEC
  0
SECTION
  2
ENTITIES
  0
INSERT
  2
FILLET004
  8
0
 62
0
 10
0.0
 20
0.0
 30
0.0
  0
ENDSEC
  0
EOF
