999
dxfrw 0.6.3
  0
SECTION
  2
HEADER
  9
$ACADVER
  1
AC1021
  9
$DWGCODEPAGE
  3
ANSI_1252
  9
$INSBASE
 10
0
 20
0
 30
0
  9
$EXTMIN
 10
-0.07943677493649481
 20
0.887726543317009
 30
0
  9
$EXTMAX
 10
2006.41392465641
 20
801
 30
0
  9
$LIMMIN
 10
0
 20
0
  9
$LIMMAX
 10
420
 20
297
  9
$ORTHOMODE
 70
    0
  9
$REGENMODE
 70
    1
  9
$FILLMODE
 70
    1
  9
$QTEXTMODE
 70
    0
  9
$MIRRTEXT
 70
    0
  9
$LTSCALE
 40
1
  9
$ATTMODE
 70
    0
  9
$TEXTSIZE
 40
2.5
  9
$TRACEWID
 40
15.68
  9
$TEXTSTYLE
  7
STANDARD
  9
$CLAYER
  8
0
  9
$CELTYPE
  6
BYLAYER
  9
$CECOLOR
 62
  256
  9
$CELTSCALE
 40
1
  9
$DISPSILH
 70
    0
  9
$DIMSCALE
 40
2.5
  9
$DIMASZ
 40
2.5
  9
$DIMEXO
 40
0.625
  9
$DIMDLI
 40
3.75
  9
$DIMRND
 40
0
  9
$DIMDLE
 40
0
  9
$DIMEXE
 40
1.25
  9
$DIMTP
 40
0
  9
$DIMTM
 40
0
  9
$DIMTXT
 40
2.5
  9
$DIMCEN
 40
2.5
  9
$DIMTSZ
 40
0
  9
$DIMTOL
 70
    0
  9
$DIMLIM
 70
    0
  9
$DIMTIH
 70
    0
  9
$DIMTOH
 70
    0
  9
$DIMSE1
 70
    0
  9
$DIMSE2
 70
    0
  9
$DIMTAD
 70
    1
  9
$DIMZIN
 70
    8
  9
$DIMBLK
  1

  9
$DIMASO
 70
    1
  9
$DIMSHO
 70
    1
  9
$DIMPOST
  1

  9
$DIMAPOST
  1

  9
$DIMALT
 70
    0
  9
$DIMALTD
 70
    3
  9
$DIMALTF
 40
0.03937
  9
$DIMLFAC
 40
1
  9
$DIMTOFL
 70
    1
  9
$DIMTVP
 40
0
  9
$DIMTIX
 70
    0
  9
$DIMSOXD
 70
    0
  9
$DIMSAH
 70
    0
  9
$DIMBLK1
  1

  9
$DIMBLK2
  1

  9
$DIMSTYLE
  2
STANDARD
  9
$DIMCLRD
 70
    0
  9
$DIMCLRE
 70
    0
  9
$DIMCLRT
 70
    0
  9
$DIMTFAC
 40
1
  9
$DIMGAP
 40
0.625
  9
$DIMJUST
 70
    0
  9
$DIMSD1
 70
    0
  9
$DIMSD2
 70
    0
  9
$DIMTOLJ
 70
    0
  9
$DIMTZIN
 70
    8
  9
$DIMALTZ
 70
    0
  9
$DIMALTTZ
 70
    0
  9
$DIMUPT
 70
    0
  9
$DIMDEC
 70
    2
  9
$DIMTDEC
 70
    2
  9
$DIMALTU
 70
    2
  9
$DIMALTTD
 70
    3
  9
$DIMTXSTY
  7
STANDARD
  9
$DIMAUNIT
 70
    0
  9
$DIMADEC
 70
    0
  9
$DIMALTRND
 40
0
  9
$DIMAZIN
 70
    0
  9
$DIMDSEP
 70
   44
  9
$DIMATFIT
 70
    3
  9
$DIMFRAC
 70
    0
  9
$DIMLDRBLK
  1
STANDARD
  9
$DIMLUNIT
 70
    2
  9
$DIMLWD
 70
   -2
  9
$DIMLWE
 70
   -2
  9
$DIMTMOVE
 70
    0
  9
$DIMFXL
 40
1
  9
$DIMFXLON
 70
    0
  9
$DIMJOGANG
 40
0.7854
  9
$DIMTFILL
 70
    0
  9
$DIMTFILLCLR
 70
    0
  9
$DIMARCSYM
 70
    0
  9
$DIMLTYPE
  6

  9
$DIMLTEX1
  6

  9
$DIMLTEX2
  6

  9
$LUNITS
 70
    2
  9
$LUPREC
 70
    4
  9
$SKETCHINC
 40
1
  9
$FILLETRAD
 40
0
  9
$AUNITS
 70
    0
  9
$AUPREC
 70
    2
  9
$MENU
  1
.
  9
$ELEVATION
 40
0
  9
$PELEVATION
 40
0
  9
$THICKNESS
 40
0
  9
$LIMCHECK
 70
    0
  9
$CHAMFERA
 40
0
  9
$CHAMFERB
 40
0
  9
$CHAMFERC
 40
0
  9
$CHAMFERD
 40
0
  9
$SKPOLY
 70
    0
  9
$USRTIMER
 70
    1
  9
$ANGBASE
 50
0
  9
$ANGDIR
 70
    0
  9
$PDMODE
 70
   34
  9
$PDSIZE
 40
0
  9
$PLINEWID
 40
0
  9
$SPLFRAME
 70
    0
  9
$SPLINETYPE
 70
    2
  9
$SPLINESEGS
 70
    8
  9
$HANDSEED
  5
20000
  9
$SURFTAB1
 70
    6
  9
$SURFTAB2
 70
    6
  9
$SURFTYPE
 70
    6
  9
$SURFU
 70
    6
  9
$SURFV
 70
    6
  9
$UCSBASE
  2

  9
$UCSNAME
  2

  9
$UCSORG
 10
0
 20
0
 30
0
  9
$UCSXDIR
 10
1
 20
0
 30
0
  9
$UCSYDIR
 10
0
 20
1
 30
0
  9
$UCSORTHOREF
  2

  9
$UCSORTHOVIEW
 70
    0
  9
$UCSORGTOP
 10
0
 20
0
 30
0
  9
$UCSORGBOTTOM
 10
0
 20
0
 30
0
  9
$UCSORGLEFT
 10
0
 20
0
 30
0
  9
$UCSORGRIGHT
 10
0
 20
0
 30
0
  9
$UCSORGFRONT
 10
0
 20
0
 30
0
  9
$UCSORGBACK
 10
0
 20
0
 30
0
  9
$PUCSBASE
  2

  9
$PUCSNAME
  2

  9
$PUCSORG
 10
0
 20
0
 30
0
  9
$PUCSXDIR
 10
1
 20
0
 30
0
  9
$PUCSYDIR
 10
0
 20
1
 30
0
  9
$PUCSORTHOREF
  2

  9
$PUCSORTHOVIEW
 70
    0
  9
$PUCSORGTOP
 10
0
 20
0
 30
0
  9
$PUCSORGBOTTOM
 10
0
 20
0
 30
0
  9
$PUCSORGLEFT
 10
0
 20
0
 30
0
  9
$PUCSORGRIGHT
 10
0
 20
0
 30
0
  9
$PUCSORGFRONT
 10
0
 20
0
 30
0
  9
$PUCSORGBACK
 10
0
 20
0
 30
0
  9
$USERI1
 70
    0
  9
$USERI2
 70
    0
  9
$USERI3
 70
    0
  9
$USERI4
 70
    0
  9
$USERI5
 70
    0
  9
$USERR1
 40
0
  9
$USERR2
 40
0
  9
$USERR3
 40
0
  9
$USERR4
 40
0
  9
$USERR5
 40
0
  9
$WORLDVIEW
 70
    1
  9
$SHADEDGE
 70
    3
  9
$SHADEDIF
 70
   70
  9
$TILEMODE
 70
    1
  9
$MAXACTVP
 70
   64
  9
$PINSBASE
 10
0
 20
0
 30
0
  9
$PLIMCHECK
 70
    0
  9
$PEXTMIN
 10
0
 20
0
 30
0
  9
$PEXTMAX
 10
0
 20
0
 30
0
  9
$GRIDMODE
 70
    1
  9
$SNAPSTYLE
 70
    0
  9
$PLIMMIN
 10
0
 20
0
  9
$PLIMMAX
 10
297
 20
210
  9
$UNITMODE
 70
    0
  9
$VISRETAIN
 70
    1
  9
$PLINEGEN
 70
    0
  9
$PSLTSCALE
 70
    1
  9
$TREEDEPTH
 70
 3020
  9
$CMLSTYLE
  2
Standard
  9
$CMLJUST
 70
    0
  9
$CMLSCALE
 40
20
  9
$PROXYGRAPHICS
 70
    1
  9
$MEASUREMENT
 70
    1
  9
$CELWEIGHT
370
   -1
  9
$ENDCAPS
280
    0
  9
$JOINSTYLE
280
    0
  9
$LWDISPLAY
290
    0
  9
$INSUNITS
 70
    0
  9
$HYPERLINKBASE
  1

  9
$STYLESHEET
  1

  9
$XEDIT
290
    1
  9
$CEPSNTYPE
380
    0
  9
$PSTYLEMODE
290
    1
  9
$EXTNAMES
290
    1
  9
$PSVPSCALE
 40
1
  9
$OLESTARTUP
290
    0
  9
$SORTENTS
280
  127
  9
$INDEXCTL
280
    0
  9
$HIDETEXT
280
    1
  9
$XCLIPFRAME
290
    0
  9
$HALOGAP
280
    0
  9
$OBSCOLOR
 70
  257
  9
$OBSLTYPE
280
    0
  9
$INTERSECTIONDISPLAY
280
    0
  9
$INTERSECTIONCOLOR
 70
  257
  9
$DIMASSOC
280
    1
  9
$PROJECTNAME
  1

  9
$CAMERADISPLAY
290
    0
  9
$LENSLENGTH
 40
50
  9
$CAMERAHEIGHT
 40
0
  9
$STEPSPERSEC
 40
2
  9
$STEPSIZE
 40
50
  9
$3DDWFPREC
 40
2
  9
$PSOLWIDTH
 40
5
  9
$PSOLHEIGHT
 40
80
  9
$LOFTANG1
 40
1.570796326794897
  9
$LOFTANG2
 40
1.570796326794897
  9
$LOFTMAG1
 40
0
  9
$LOFTMAG2
 40
0
  9
$LOFTPARAM
 70
    7
  9
$LOFTNORMALS
280
    1
  9
$LATITUDE
 40
1
  9
$LONGITUDE
 40
1
  9
$NORTHDIRECTION
 40
0
  9
$TIMEZONE
 70
-8000
  9
$LIGHTGLYPHDISPLAY
280
    1
  9
$TILEMODELIGHTSYNCH
280
    1
  9
$SOLIDHIST
280
    1
  9
$SHOWHIST
280
    1
  9
$DWFFRAME
280
    2
  9
$DGNFRAME
280
    0
  9
$REALWORLDSCALE
290
    1
  9
$INTERFERECOLOR
 62
    1
  9
$CSHADOW
280
    0
  9
$SHADOWPLANELOCATION
 40
0
  0
ENDSEC
  0
SECTION
  2
CLASSES
  0
ENDSEC
  0
SECTION
  2
TABLES
  0
TABLE
  2
VPORT
  5
8
330
0
100
AcDbSymbolTable
 70
    1
  0
VPORT
  5
31
330
2
100
AcDbSymbolTableRecord
100
AcDbViewportTableRecord
  2
*ACTIVE
 70
    0
 10
0
 20
0
 11
1
 21
1
 12
1305.590832769499
 22
646.9956545412521
 13
0
 23
0
 14
10
 24
10
 15
10
 25
10
 16
0
 26
0
 36
1
 17
0
 27
0
 37
0
 40
2077.603575937248
 41
1.478908188585608
 42
50
 43
0
 44
0
 50
0
 51
0
 71
    0
 72
  100
 73
    1
 74
    3
 75
    0
 76
    1
 77
    0
 78
    0
281
    0
 65
    1
110
0
120
0
130
0
111
1
121
0
131
0
112
0
122
1
132
0
 79
    0
146
0
348
10020
 60
    7
 61
    5
292
1
282
    1
141
0
142
0
 63
  250
421
3358443
  0
ENDTAB
  0
TABLE
  2
LTYPE
  5
5
330
0
100
AcDbSymbolTable
 70
    4
  0
LTYPE
  5
14
330
5
100
AcDbSymbolTableRecord
100
AcDbLinetypeTableRecord
  2
ByBlock
 70
    0
  3

 72
   65
 73
    0
 40
0
  0
LTYPE
  5
15
330
5
100
AcDbSymbolTableRecord
100
AcDbLinetypeTableRecord
  2
ByLayer
 70
    0
  3

 72
   65
 73
    0
 40
0
  0
LTYPE
  5
16
330
5
100
AcDbSymbolTableRecord
100
AcDbLinetypeTableRecord
  2
Continuous
 70
    0
  3
Solid line
 72
   65
 73
    0
 40
0
  0
LTYPE
  5
32
330
5
100
AcDbSymbolTableRecord
100
AcDbLinetypeTableRecord
  2
DOT
 70
    0
  3
Dot . . . . . . . . . . . . . . . . . . . . . .
 72
   65
 73
    2
 40
6.35
 49
0
 74
    0
 49
-6.35
 74
    0
  0
LTYPE
  5
33
330
5
100
AcDbSymbolTableRecord
100
AcDbLinetypeTableRecord
  2
DOTTINY
 70
    0
  3
Dot (.15x) .....................................
 72
   65
 73
    2
 40
0.9525
 49
0
 74
    0
 49
-0.9525
 74
    0
  0
LTYPE
  5
34
330
5
100
AcDbSymbolTableRecord
100
AcDbLinetypeTableRecord
  2
DOT2
 70
    0
  3
Dot (.5x) .....................................
 72
   65
 73
    2
 40
3.175
 49
0
 74
    0
 49
-3.175
 74
    0
  0
LTYPE
  5
35
330
5
100
AcDbSymbolTableRecord
100
AcDbLinetypeTableRecord
  2
DOTX2
 70
    0
  3
Dot (2x) .  .  .  .  .  .  .  .  .  .  .  .  .
 72
   65
 73
    2
 40
12.7
 49
0
 74
    0
 49
-12.7
 74
    0
  0
LTYPE
  5
36
330
5
100
AcDbSymbolTableRecord
100
AcDbLinetypeTableRecord
  2
DASHED
 70
    0
  3
Dashed _ _ _ _ _ _ _ _ _ _ _ _ _ _ _ _ _
 72
   65
 73
    2
 40
19.05
 49
12.7
 74
    0
 49
-6.35
 74
    0
  0
LTYPE
  5
37
330
5
100
AcDbSymbolTableRecord
100
AcDbLinetypeTableRecord
  2
DASHEDTINY
 70
    0
  3
Dashed (.15x) _ _ _ _ _ _ _ _ _ _ _ _ _ _ _ _ _
 72
   65
 73
    2
 40
2.8575
 49
1.905
 74
    0
 49
-0.9525
 74
    0
  0
LTYPE
  5
38
330
5
100
AcDbSymbolTableRecord
100
AcDbLinetypeTableRecord
  2
DASHED2
 70
    0
  3
Dashed (.5x) _ _ _ _ _ _ _ _ _ _ _ _ _ _ _ _ _
 72
   65
 73
    2
 40
9.524999999999999
 49
6.35
 74
    0
 49
-3.175
 74
    0
  0
LTYPE
  5
39
330
5
100
AcDbSymbolTableRecord
100
AcDbLinetypeTableRecord
  2
DASHEDX2
 70
    0
  3
Dashed (2x) ____  ____  ____  ____  ____  ___
 72
   65
 73
    2
 40
38.09999999999999
 49
25.4
 74
    0
 49
-12.7
 74
    0
  0
LTYPE
  5
3A
330
5
100
AcDbSymbolTableRecord
100
AcDbLinetypeTableRecord
  2
DASHDOT
 70
    0
  3
Dash dot __ . __ . __ . __ . __ . __ . __ . __
 72
   65
 73
    4
 40
25.4
 49
12.7
 74
    0
 49
-6.35
 74
    0
 49
0
 74
    0
 49
-6.35
 74
    0
  0
LTYPE
  5
3B
330
5
100
AcDbSymbolTableRecord
100
AcDbLinetypeTableRecord
  2
DASHDOTTINY
 70
    0
  3
Dash dot (.15x) _._._._._._._._._._._._._._._.
 72
   65
 73
    4
 40
3.81
 49
1.905
 74
    0
 49
-0.9525
 74
    0
 49
0
 74
    0
 49
-0.9525
 74
    0
  0
LTYPE
  5
3C
330
5
100
AcDbSymbolTableRecord
100
AcDbLinetypeTableRecord
  2
DASHDOT2
 70
    0
  3
Dash dot (.5x) _._._._._._._._._._._._._._._.
 72
   65
 73
    4
 40
12.7
 49
6.35
 74
    0
 49
-3.175
 74
    0
 49
0
 74
    0
 49
-3.175
 74
    0
  0
LTYPE
  5
3D
330
5
100
AcDbSymbolTableRecord
100
AcDbLinetypeTableRecord
  2
DASHDOTX2
 70
    0
  3
Dash dot (2x) ____  .  ____  .  ____  .  ___
 72
   65
 73
    4
 40
50.8
 49
25.4
 74
    0
 49
-12.7
 74
    0
 49
0
 74
    0
 49
-12.7
 74
    0
  0
LTYPE
  5
3E
330
5
100
AcDbSymbolTableRecord
100
AcDbLinetypeTableRecord
  2
DIVIDE
 70
    0
  3
Divide ____ . . ____ . . ____ . . ____ . . ____
 72
   65
 73
    6
 40
31.75
 49
12.7
 74
    0
 49
-6.35
 74
    0
 49
0
 74
    0
 49
-6.35
 74
    0
 49
0
 74
    0
 49
-6.35
 74
    0
  0
LTYPE
  5
3F
330
5
100
AcDbSymbolTableRecord
100
AcDbLinetypeTableRecord
  2
DIVIDETINY
 70
    0
  3
Divide (.15x) __..__..__..__..__..__..__..__.._
 72
   65
 73
    6
 40
4.7625
 49
1.905
 74
    0
 49
-0.9525
 74
    0
 49
0
 74
    0
 49
-0.9525
 74
    0
 49
0
 74
    0
 49
-0.9525
 74
    0
  0
LTYPE
  5
40
330
5
100
AcDbSymbolTableRecord
100
AcDbLinetypeTableRecord
  2
DIVIDE2
 70
    0
  3
Divide (.5x) __..__..__..__..__..__..__..__.._
 72
   65
 73
    6
 40
15.875
 49
6.35
 74
    0
 49
-3.175
 74
    0
 49
0
 74
    0
 49
-3.175
 74
    0
 49
0
 74
    0
 49
-3.175
 74
    0
  0
LTYPE
  5
41
330
5
100
AcDbSymbolTableRecord
100
AcDbLinetypeTableRecord
  2
DIVIDEX2
 70
    0
  3
Divide (2x) ________  .  .  ________  .  .  _
 72
   65
 73
    6
 40
63.5
 49
25.4
 74
    0
 49
-12.7
 74
    0
 49
0
 74
    0
 49
-12.7
 74
    0
 49
0
 74
    0
 49
-12.7
 74
    0
  0
LTYPE
  5
42
330
5
100
AcDbSymbolTableRecord
100
AcDbLinetypeTableRecord
  2
BORDER
 70
    0
  3
Border __ __ . __ __ . __ __ . __ __ . __ __ .
 72
   65
 73
    6
 40
44.45
 49
12.7
 74
    0
 49
-6.35
 74
    0
 49
12.7
 74
    0
 49
-6.35
 74
    0
 49
0
 74
    0
 49
-6.35
 74
    0
  0
LTYPE
  5
43
330
5
100
AcDbSymbolTableRecord
100
AcDbLinetypeTableRecord
  2
BORDERTINY
 70
    0
  3
Border (.15x) __.__.__.__.__.__.__.__.__.__.__.
 72
   65
 73
    6
 40
6.6675
 49
1.905
 74
    0
 49
-0.9525
 74
    0
 49
1.905
 74
    0
 49
-0.9525
 74
    0
 49
0
 74
    0
 49
-0.9525
 74
    0
  0
LTYPE
  5
44
330
5
100
AcDbSymbolTableRecord
100
AcDbLinetypeTableRecord
  2
BORDER2
 70
    0
  3
Border (.5x) __.__.__.__.__.__.__.__.__.__.__.
 72
   65
 73
    6
 40
22.225
 49
6.35
 74
    0
 49
-3.175
 74
    0
 49
6.35
 74
    0
 49
-3.175
 74
    0
 49
0
 74
    0
 49
-3.175
 74
    0
  0
LTYPE
  5
45
330
5
100
AcDbSymbolTableRecord
100
AcDbLinetypeTableRecord
  2
BORDERX2
 70
    0
  3
Border (2x) ____  ____  .  ____  ____  .  ___
 72
   65
 73
    6
 40
88.89999999999999
 49
25.4
 74
    0
 49
-12.7
 74
    0
 49
25.4
 74
    0
 49
-12.7
 74
    0
 49
0
 74
    0
 49
-12.7
 74
    0
  0
LTYPE
  5
46
330
5
100
AcDbSymbolTableRecord
100
AcDbLinetypeTableRecord
  2
CENTER
 70
    0
  3
Center ____ _ ____ _ ____ _ ____ _ ____ _ ____
 72
   65
 73
    4
 40
50.8
 49
31.75
 74
    0
 49
-6.35
 74
    0
 49
6.35
 74
    0
 49
-6.35
 74
    0
  0
LTYPE
  5
47
330
5
100
AcDbSymbolTableRecord
100
AcDbLinetypeTableRecord
  2
CENTERTINY
 70
    0
  3
Center (.15x) ___ _ ___ _ ___ _ ___ _ ___ _ ___
 72
   65
 73
    4
 40
7.619999999999999
 49
4.7625
 74
    0
 49
-0.9525
 74
    0
 49
0.9525
 74
    0
 49
-0.9525
 74
    0
  0
LTYPE
  5
48
330
5
100
AcDbSymbolTableRecord
100
AcDbLinetypeTableRecord
  2
CENTER2
 70
    0
  3
Center (.5x) ___ _ ___ _ ___ _ ___ _ ___ _ ___
 72
   65
 73
    4
 40
28.575
 49
19.05
 74
    0
 49
-3.175
 74
    0
 49
3.175
 74
    0
 49
-3.175
 74
    0
  0
LTYPE
  5
49
330
5
100
AcDbSymbolTableRecord
100
AcDbLinetypeTableRecord
  2
CENTERX2
 70
    0
  3
Center (2x) ________  __  ________  __  _____
 72
   65
 73
    4
 40
101.6
 49
63.5
 74
    0
 49
-12.7
 74
    0
 49
12.7
 74
    0
 49
-12.7
 74
    0
  0
ENDTAB
  0
TABLE
  2
LAYER
  5
2
330
0
100
AcDbSymbolTable
 70
    1
  0
LAYER
  5
10
330
2
100
AcDbSymbolTableRecord
100
AcDbLayerTableRecord
  2
0
 70
    0
 62
    7
  6
CONTINUOUS
370
   -3
390
F
  0
ENDTAB
  0
TABLE
  2
STYLE
  5
3
330
0
100
AcDbSymbolTable
 70
    3
  0
STYLE
  5
4A
330
2
100
AcDbSymbolTableRecord
100
AcDbTextStyleTableRecord
  2
Standard
 70
    0
 40
0
 41
1
 50
0
 71
    0
 42
1
  3
txt
  4

  0
ENDTAB
  0
TABLE
  2
VIEW
  5
6
330
0
100
AcDbSymbolTable
 70
    0
  0
ENDTAB
  0
TABLE
  2
UCS
  5
7
330
0
100
AcDbSymbolTable
 70
    0
  0
ENDTAB
  0
TABLE
  2
APPID
  5
9
330
0
100
AcDbSymbolTable
 70
    1
  0
APPID
  5
12
330
9
100
AcDbSymbolTableRecord
100
AcDbRegAppTableRecord
  2
ACAD
 70
    0
  0
APPID
  5
4B
330
9
100
AcDbSymbolTableRecord
100
AcDbRegAppTableRecord
  2
LibreCad
 70
    0
  0
ENDTAB
  0
TABLE
  2
DIMSTYLE
  5
A
330
0
100
AcDbSymbolTable
 70
    1
100
AcDbDimStyleTable
 71
    1
  0
DIMSTYLE
105
4C
330
A
100
AcDbSymbolTableRecord
100
AcDbDimStyleTableRecord
  2
Standard
 70
    0
 40
2.5
 41
2.5
 42
0.625
 43
0.38
 44
1.25
 45
0
 46
0
 47
0
 48
0
 49
1
140
2.5
141
0.09
142
0
143
25.4
144
1
145
0
146
1
147
0.625
148
0
 71
    0
 72
    0
 73
    0
 74
    1
 75
    0
 76
    0
 77
    0
 78
    8
 79
    0
170
    0
171
    2
172
    0
173
    0
174
    0
175
    0
176
    0
177
    0
178
    0
179
    0
271
    2
272
    4
273
    2
274
    2
275
    0
276
    0
277
    2
278
   44
279
    0
280
    0
281
    0
282
    0
283
    1
284
    0
285
    0
286
    0
288
    0
289
    3
340
STANDARD
341

371
   -2
372
   -2
  0
ENDTAB
  0
TABLE
  2
BLOCK_RECORD
  5
1
330
0
100
AcDbSymbolTable
 70
    2
  0
BLOCK_RECORD
  5
1F
330
1
100
AcDbSymbolTableRecord
100
AcDbBlockTableRecord
  2
*Model_Space
 70
    0
280
    1
281
    0
  0
BLOCK_RECORD
  5
1E
330
1
100
AcDbSymbolTableRecord
100
AcDbBlockTableRecord
  2
*Paper_Space
 70
    0
280
    1
281
    0
  0
BLOCK_RECORD
  5
4D
330
1
100
AcDbSymbolTableRecord
100
AcDbBlockTableRecord
  2
SKETCH010
 70
    0
280
    1
281
    0
  0
ENDTAB
  0
ENDSEC
  0
SECTION
  2
BLOCKS
  0
BLOCK
  5
20
330
1F
100
AcDbEntity
  8
0
100
AcDbBlockBegin
  2
*Model_Space
 70
    0
 10
0
 20
0
 30
0
  3
*Model_Space
  1

  0
ENDBLK
  5
21
330
1F
100
AcDbEntity
  8
0
100
AcDbBlockEnd
  0
BLOCK
  5
1C
330
1B
100
AcDbEntity
  8
0
100
AcDbBlockBegin
  2
*Paper_Space
 70
    0
 10
0
 20
0
 30
0
  3
*Paper_Space
  1

  0
ENDBLK
  5
1D
330
1F
100
AcDbEntity
  8
0
100
AcDbBlockEnd
  0
BLOCK
  5
4E
330
4D
100
AcDbEntity
  8
0
100
AcDbBlockBegin
  2
SKETCH010
 70
    0
 10
0
 20
0
  3
SKETCH010
  1

  0
LWPOLYLINE
  5
50
100
AcDbEntity
  8
0
  6
ByLayer
 62
  174
370
   -1
100
AcDbPolyline
 90
   23
 70
    0
 43
0
 10
-746.3746193139643
 20
-1760.497787143782
 10
-799.9999999999998
 20
-1645.497787143782
 10
-799.9999999999991
 20
-1248.748893571892
 10
-759.9999999999991
 20
-1248.748893571892
 10
-759.9999999999993
 20
-948.7488935718918
 10
-799.9999999999995
 20
-948.7488935718918
 10
-799.9999999999999
 20
-359.9999999999999
 42
-0.414213562373095
 10
-794.9999999999999
 20
-355.0000000000001
 10
-790
 20
-355.0000000000003
 10
-790
 20
0.4977871437821619
 10
-795.0000000000002
 20
0.497787143782177
 42
-0.414213562373095
 10
-800.0000000000002
 20
5.497787143782179
 10
-800.0000000000002
 20
218.246680715673
 42
-0.4142135623730981
 10
-795.0000000000002
 20
223.2466807156731
 10
-5.00000000000006
 20
223.2466807156731
 42
-0.4142135623730961
 10
-2.557953848736361e-13
 20
218.2466807156731
 10
7.220890552162018e-13
 20
-1778.246680715673
 42
-0.4142135623730888
 10
-4.999999999999143
 20
-1783.246680715673
 10
-744.5093886814066
 20
-1783.246680715673
 10
-744.5093886814067
 20
-1763.246680715673
 10
-746.3746193139643
 20
-1760.497787143782
 10
-745.9083116558249
 20
-1763.246680715673
 10
-744.5093886814066
 20
-1763.246680715673
  0
LWPOLYLINE
  5
51
100
AcDbEntity
  8
0
  6
ByLayer
 62
  174
370
   -1
100
AcDbPolyline
 90
    4
 70
    1
 43
0
 10
-737
 20
-420
 10
-734
 20
-420
 10
-734
 20
-343.2511064281092
 10
-737
 20
-343.2511064281092
  0
LWPOLYLINE
  5
52
100
AcDbEntity
  8
0
  6
ByLayer
 62
  174
370
   -1
100
AcDbPolyline
 90
    4
 70
    1
 43
0
 10
-99.99999999999909
 20
-1278.748893571891
 10
-99.99999999999909
 20
-1273.748893571891
 10
-29.99999999999908
 20
-1273.748893571891
 10
-29.99999999999908
 20
-1278.748893571891
  0
LWPOLYLINE
  5
53
100
AcDbEntity
  8
0
  6
ByLayer
 62
  174
370
   -1
100
AcDbPolyline
 90
    4
 70
    1
 43
0
 10
-100.0000000122693
 20
-878.7488935718321
 10
-100.0000000122693
 20
-873.7488935718322
 10
-30.00000001226929
 20
-873.748893571832
 10
-30.00000001226929
 20
-878.748893571832
  0
LWPOLYLINE
  5
54
100
AcDbEntity
  8
0
  6
ByLayer
 62
  174
370
   -1
100
AcDbPolyline
 90
    4
 70
    1
 43
0
 10
-100.0000134160397
 20
-338.1242236169852
 10
-100.0000134160397
 20
-333.1242236169852
 10
-30.00001341603975
 20
-333.1242236169852
 10
-30.00001341603975
 20
-338.1242236169852
  0
LWPOLYLINE
  5
55
100
AcDbEntity
  8
0
  6
ByLayer
 62
  174
370
   -1
100
AcDbPolyline
 90
    4
 70
    1
 43
0
 10
-699.9999999999999
 20
-178.2511064281097
 10
-699.9999999999999
 20
-173.2511064281097
 10
-629.9999999999999
 20
-173.2511064281096
 10
-629.9999999999999
 20
-178.2511064281096
  0
LWPOLYLINE
  5
56
100
AcDbEntity
  8
0
  6
ByLayer
 62
  174
370
   -1
100
AcDbPolyline
 90
    4
 70
    1
 43
0
 10
-699.9999999999998
 20
-338.2511064281097
 10
-699.9999999999998
 20
-333.2511064281097
 10
-629.9999999999998
 20
-333.2511064281096
 10
-629.9999999999998
 20
-338.2511064281096
  0
LWPOLYLINE
  5
57
100
AcDbEntity
  8
0
  6
ByLayer
 62
  174
370
   -1
100
AcDbPolyline
 90
    4
 70
    1
 43
0
 10
-100.0000134160399
 20
-178.1242236169852
 10
-100.0000134160399
 20
-173.1242236169852
 10
-30.00001341603988
 20
-173.1242236169852
 10
-30.00001341603987
 20
-178.1242236169852
  0
LWPOLYLINE
  5
58
100
AcDbEntity
  8
0
  6
ByLayer
 62
  174
370
   -1
100
AcDbPolyline
 90
    4
 70
    1
 43
0
 10
-699.9999999999991
 20
-1278.748893571892
 10
-699.9999999999991
 20
-1273.748893571892
 10
-629.9999999999991
 20
-1273.748893571892
 10
-629.9999999999991
 20
-1278.748893571892
  0
LWPOLYLINE
  5
59
100
AcDbEntity
  8
0
  6
ByLayer
 62
  174
370
   -1
100
AcDbPolyline
 90
    4
 70
    1
 43
0
 10
-630.0000000122693
 20
-878.7488935718327
 10
-700.0000000122693
 20
-878.7488935718327
 10
-700.0000000122693
 20
-883.7488935718327
 10
-630.0000000122693
 20
-883.7488935718327
  0
LWPOLYLINE
  5
5A
100
AcDbEntity
  8
0
  6
ByLayer
 62
  174
370
   -1
100
AcDbPolyline
 90
    4
 70
    1
 43
0
 10
-733.9999999999997
 20
-1395.497787143782
 10
-736.9999999999998
 20
-1395.497787143782
 10
-736.9999999999997
 20
-1465.497787143782
 10
-733.9999999999995
 20
-1465.497787143782
  0
LWPOLYLINE
  5
5B
100
AcDbEntity
  8
0
  6
ByLayer
 62
  174
370
   -1
100
AcDbPolyline
 90
    4
 70
    1
 43
0
 10
-607.4999999999994
 20
-1642.997787143783
 10
-609.9999999999995
 20
-1642.997787143783
 10
-609.9999999999993
 20
-1702.997787143783
 10
-607.4999999999993
 20
-1702.997787143783
  0
LWPOLYLINE
  5
5C
100
AcDbEntity
  8
0
  6
ByLayer
 62
  174
370
   -1
100
AcDbPolyline
 90
    4
 70
    1
 43
0
 10
-610
 20
27.99778714378215
 10
-610
 20
87.99778714378215
 10
-607.5
 20
87.99778714378215
 10
-607.5
 20
27.99778714378215
  0
LWPOLYLINE
  5
5D
100
AcDbEntity
  8
0
  6
ByLayer
 62
  174
370
   -1
100
AcDbPolyline
 90
    4
 70
    1
 43
0
 10
-739.4999999999993
 20
-888.7488935718918
 10
-741.9999999999994
 20
-888.7488935718918
 10
-741.9999999999993
 20
-928.7488935718918
 10
-739.4999999999993
 20
-928.7488935718918
  0
LWPOLYLINE
  5
5E
100
AcDbEntity
  8
0
  6
ByLayer
 62
  174
370
   -1
100
AcDbPolyline
 90
    4
 70
    1
 43
0
 10
-741.9999999999995
 20
-738.7488935718918
 10
-741.9999999999995
 20
-698.7488935718918
 10
-739.4999999999995
 20
-698.7488935718918
 10
-739.4999999999995
 20
-738.7488935718918
  0
LWPOLYLINE
  5
5F
100
AcDbEntity
  8
0
  6
ByLayer
 62
  174
370
   -1
100
AcDbPolyline
 90
    4
 70
    1
 43
0
 10
-720.2555262293012
 20
-545.7489402102175
 10
-705.2555262293012
 20
-545.7489402102175
 42
-0.9999999999999999
 10
-705.2555262293012
 20
-551.7489402102175
 10
-720.2555262293012
 20
-551.7489402102175
 42
-0.9999999999999999
  0
LWPOLYLINE
  5
60
100
AcDbEntity
  8
0
  6
ByLayer
 62
  174
370
   -1
100
AcDbPolyline
 90
    4
 70
    1
 43
0
 10
-720.0365037470423
 20
-1145.74890023451
 10
-705.0365037470423
 20
-1145.74890023451
 42
-0.9999999999999999
 10
-705.0365037470423
 20
-1151.74890023451
 10
-720.0365037470423
 20
-1151.74890023451
 42
-0.9999999999999999
  0
LWPOLYLINE
  5
61
100
AcDbEntity
  8
0
  6
ByLayer
 62
  174
370
   -1
100
AcDbPolyline
 90
    4
 70
    1
 43
0
 10
-720.219022482258
 20
-645.7489335475996
 10
-705.219022482258
 20
-645.7489335475996
 42
-0.9999999999999999
 10
-705.219022482258
 20
-651.7489335475996
 10
-720.219022482258
 20
-651.7489335475996
 42
-0.9999999999999999
  0
LWPOLYLINE
  5
62
100
AcDbEntity
  8
0
  6
ByLayer
 62
  174
370
   -1
100
AcDbPolyline
 90
    4
 70
    1
 43
0
 10
-719.9999999999991
 20
-1245.748893571892
 10
-704.9999999999991
 20
-1245.748893571892
 42
-0.9999999999999999
 10
-704.9999999999991
 20
-1251.748893571892
 10
-719.9999999999991
 20
-1251.748893571892
 42
-0.9999999999999999
  0
LWPOLYLINE
  5
63
100
AcDbEntity
  8
0
  6
ByLayer
 62
  174
370
   -1
100
AcDbPolyline
 90
    4
 70
    1
 43
0
 10
-720.1825187352149
 20
-745.7489268849815
 10
-705.1825187352149
 20
-745.7489268849815
 42
-0.9999999999999999
 10
-705.1825187352149
 20
-751.7489268849815
 10
-720.1825187352148
 20
-751.7489268849815
 42
-1.000000000000019
  0
LWPOLYLINE
  5
64
100
AcDbEntity
  8
0
  6
ByLayer
 62
  174
370
   -1
100
AcDbPolyline
 90
    4
 70
    1
 43
0
 10
-720.1460149881717
 20
-845.7489202223635
 10
-705.1460149881717
 20
-845.7489202223635
 42
-0.9999999999999999
 10
-705.1460149881717
 20
-851.7489202223635
 10
-720.1460149881717
 20
-851.7489202223635
 42
-0.9999999999999999
  0
LWPOLYLINE
  5
65
100
AcDbEntity
  8
0
  6
ByLayer
 62
  174
370
   -1
100
AcDbPolyline
 90
    4
 70
    1
 43
0
 10
-720.1095112411285
 20
-945.7489135597457
 10
-705.1095112411285
 20
-945.7489135597457
 42
-0.9999999999999999
 10
-705.1095112411285
 20
-951.7489135597457
 10
-720.1095112411284
 20
-951.7489135597457
 42
-1.000000000000019
  0
LWPOLYLINE
  5
66
100
AcDbEntity
  8
0
  6
ByLayer
 62
  174
370
   -1
100
AcDbPolyline
 90
    4
 70
    1
 43
0
 10
-720.0730074940853
 20
-1045.748906897128
 10
-705.0730074940853
 20
-1045.748906897128
 42
-0.9999999999999999
 10
-705.0730074940853
 20
-1051.748906897128
 10
-720.0730074940853
 20
-1051.748906897128
 42
-0.9999999999999999
  0
CIRCLE
  5
67
100
AcDbEntity
  8
0
  6
ByLayer
 62
  174
370
   -1
100
AcDbCircle
 10
-617.4999999999994
 20
-1632.997787143783
 40
3.5
  0
CIRCLE
  5
68
100
AcDbEntity
  8
0
  6
ByLayer
 62
  174
370
   -1
100
AcDbCircle
 10
-617.4999999999994
 20
-1712.997787143783
 40
3.5
  0
CIRCLE
  5
69
100
AcDbEntity
  8
0
  6
ByLayer
 62
  174
370
   -1
100
AcDbCircle
 10
-617.5
 20
97.99778714378215
 40
3.5
  0
CIRCLE
  5
6A
100
AcDbEntity
  8
0
  6
ByLayer
 62
  174
370
   -1
100
AcDbCircle
 10
-792.4999999999994
 20
-1632.997787143783
 40
3.5
  0
CIRCLE
  5
6B
100
AcDbEntity
  8
0
  6
ByLayer
 62
  174
370
   -1
100
AcDbCircle
 10
-617.5
 20
17.99778714378215
 40
3.5
  0
CIRCLE
  5
6C
100
AcDbEntity
  8
0
  6
ByLayer
 62
  174
370
   -1
100
AcDbCircle
 10
-792.5
 20
97.99778714378216
 40
3.5
  0
CIRCLE
  5
6D
100
AcDbEntity
  8
0
  6
ByLayer
 62
  174
370
   -1
100
AcDbCircle
 10
-792.5
 20
17.99778714378218
 40
3.5
  0
LWPOLYLINE
  5
6E
100
AcDbEntity
  8
0
  6
ByLayer
 62
  174
370
   -1
100
AcDbPolyline
 90
    2
 70
    0
 43
0
 10
-745.055702085206
 20
-1761.872233929728
 10
6.821210263296962e-13
 20
-1761.872233929727
  0
LWPOLYLINE
  5
6F
100
AcDbEntity
  8
0
  6
ByLayer
 62
  174
370
   -1
100
AcDbPolyline
 90
    2
 70
    0
 43
0
 10
-799.9999999999997
 20
-1309.123340357837
 10
5.684341886080801e-13
 20
-1309.123340357836
  0
LWPOLYLINE
  5
70
100
AcDbEntity
  8
0
  6
ByLayer
 62
  174
370
   -1
100
AcDbPolyline
 90
    2
 70
    0
 43
0
 10
-799.9999999999999
 20
-506.3744467859459
 10
2.273736754432321e-13
 20
-506.3744467859455
  0
LWPOLYLINE
  5
71
100
AcDbEntity
  8
0
  6
ByLayer
 62
  174
370
   -1
100
AcDbPolyline
 90
    2
 70
    0
 43
0
 10
-6.078218475674217e-14
 20
201.8722339297276
 10
-800.0000000000003
 20
201.8722339297274
  0
LWPOLYLINE
  5
72
100
AcDbEntity
  8
0
  6
ByLayer
 62
  174
370
   -1
100
AcDbPolyline
 90
    2
 70
    0
 43
0
 10
-790.0000000000001
 20
-150.8766596421636
 10
1.13686837721616e-13
 20
-150.8766596421635
  0
LWPOLYLINE
  5
73
100
AcDbEntity
  8
0
  6
ByLayer
 62
  174
370
   -1
100
AcDbPolyline
 90
    2
 70
    0
 43
0
 10
-790
 20
-353.6255532140548
 10
-737
 20
-353.6255532140548
  0
LWPOLYLINE
  5
74
100
AcDbEntity
  8
0
  6
ByLayer
 62
  174
370
   -1
100
AcDbPolyline
 90
    2
 70
    0
 43
0
 10
-734
 20
-353.6255532140547
 10
2.273736754432321e-13
 20
-353.6255532140544
  0
LINE
  5
75
100
AcDbEntity
  8
0
  6
ByLayer
 62
  174
370
   -1
100
AcDbLine
 10
-799.9999999999998
 20
-1645.497787143782
 11
-746.3746193139643
 21
-1760.497787143782
  0
LINE
  5
76
100
AcDbEntity
  8
0
  6
ByLayer
 62
  174
370
   -1
100
AcDbLine
 10
-759.9999999999991
 20
-1248.748893571892
 11
-799.9999999999995
 21
-1248.748893571892
  0
LINE
  5
77
100
AcDbEntity
  8
0
  6
ByLayer
 62
  174
370
   -1
100
AcDbLine
 10
-759.9999999999993
 20
-948.7488935718918
 11
-759.9999999999991
 21
-1248.748893571892
  0
LINE
  5
78
100
AcDbEntity
  8
0
  6
ByLayer
 62
  174
370
   -1
100
AcDbLine
 10
-799.9999999999995
 20
-948.7488935718918
 11
-759.9999999999993
 21
-948.7488935718918
  0
ARC
  5
79
100
AcDbEntity
  8
0
  6
ByLayer
 62
  174
370
   -1
100
AcDbCircle
 10
-794.9999999999999
 20
-359.9999999999999
 40
5
100
AcDbArc
 50
90
 51
-180
  0
ARC
  5
7A
100
AcDbEntity
  8
0
  6
ByLayer
 62
  174
370
   -1
100
AcDbCircle
 10
-795.0000000000002
 20
5.497787143782176
 40
5
100
AcDbArc
 50
-180
 51
-89.99999999999739
  0
ARC
  5
7B
100
AcDbEntity
  8
0
  6
ByLayer
 62
  174
370
   -1
100
AcDbCircle
 10
-795.0000000000002
 20
218.246680715673
 40
5
100
AcDbArc
 50
90
 51
-180
  0
ARC
  5
7C
100
AcDbEntity
  8
0
  6
ByLayer
 62
  174
370
   -1
100
AcDbCircle
 10
-5.000000000000057
 20
218.2466807156731
 40
5
100
AcDbArc
 50
0
 51
89.99999999999969
  0
ARC
  5
7D
100
AcDbEntity
  8
0
  6
ByLayer
 62
  174
370
   -1
100
AcDbCircle
 10
-4.99999999999928
 20
-1778.246680715673
 40
5
100
AcDbArc
 50
-89.99999999999844
 51
-0
  0
LINE
  5
7E
100
AcDbEntity
  8
0
  6
ByLayer
 62
  174
370
   -1
100
AcDbLine
 10
-745.9083116558249
 20
-1783.246680715673
 11
-745.9083116558249
 21
-1763.246680715673
  0
LINE
  5
7F
100
AcDbEntity
  8
0
  6
ByLayer
 62
  174
370
   -1
100
AcDbLine
 10
-745.9083116558249
 20
-1783.246680715673
 11
-744.5093886814066
 21
-1783.246680715673
  0
ARC
  5
80
100
AcDbEntity
  8
0
  6
ByLayer
 62
  174
370
   -1
100
AcDbCircle
 10
-705.2555262293012
 20
-548.7489402102175
 40
3
100
AcDbArc
 50
-90
 51
90
  0
LINE
  5
81
100
AcDbEntity
  8
0
  6
ByLayer
 62
  174
370
   -1
100
AcDbLine
 10
-720.2555262293012
 20
-551.7489402102175
 11
-705.2555262293012
 21
-551.7489402102175
  0
ARC
  5
82
100
AcDbEntity
  8
0
  6
ByLayer
 62
  174
370
   -1
100
AcDbCircle
 10
-720.2555262293012
 20
-548.7489402102175
 40
3
100
AcDbArc
 50
90
 51
-90
  0
ARC
  5
83
100
AcDbEntity
  8
0
  6
ByLayer
 62
  174
370
   -1
100
AcDbCircle
 10
-705.0365037470423
 20
-1148.74890023451
 40
3
100
AcDbArc
 50
-90
 51
90
  0
LINE
  5
84
100
AcDbEntity
  8
0
  6
ByLayer
 62
  174
370
   -1
100
AcDbLine
 10
-720.0365037470423
 20
-1151.74890023451
 11
-705.0365037470423
 21
-1151.74890023451
  0
ARC
  5
85
100
AcDbEntity
  8
0
  6
ByLayer
 62
  174
370
   -1
100
AcDbCircle
 10
-720.0365037470423
 20
-1148.74890023451
 40
3
100
AcDbArc
 50
90
 51
-90
  0
ARC
  5
86
100
AcDbEntity
  8
0
  6
ByLayer
 62
  174
370
   -1
100
AcDbCircle
 10
-705.219022482258
 20
-648.7489335475996
 40
3
100
AcDbArc
 50
-90
 51
90
  0
LINE
  5
87
100
AcDbEntity
  8
0
  6
ByLayer
 62
  174
370
   -1
100
AcDbLine
 10
-720.219022482258
 20
-651.7489335475996
 11
-705.219022482258
 21
-651.7489335475996
  0
ARC
  5
88
100
AcDbEntity
  8
0
  6
ByLayer
 62
  174
370
   -1
100
AcDbCircle
 10
-720.219022482258
 20
-648.7489335475996
 40
3
100
AcDbArc
 50
90
 51
-90
  0
ARC
  5
89
100
AcDbEntity
  8
0
  6
ByLayer
 62
  174
370
   -1
100
AcDbCircle
 10
-704.9999999999991
 20
-1248.748893571892
 40
3
100
AcDbArc
 50
-90
 51
90
  0
LINE
  5
8A
100
AcDbEntity
  8
0
  6
ByLayer
 62
  174
370
   -1
100
AcDbLine
 10
-719.9999999999991
 20
-1251.748893571892
 11
-704.9999999999991
 21
-1251.748893571892
  0
ARC
  5
8B
100
AcDbEntity
  8
0
  6
ByLayer
 62
  174
370
   -1
100
AcDbCircle
 10
-719.9999999999991
 20
-1248.748893571892
 40
3
100
AcDbArc
 50
90
 51
-90
  0
ARC
  5
8C
100
AcDbEntity
  8
0
  6
ByLayer
 62
  174
370
   -1
100
AcDbCircle
 10
-705.1825187352149
 20
-748.7489268849815
 40
3
100
AcDbArc
 50
-90
 51
90
  0
LINE
  5
8D
100
AcDbEntity
  8
0
  6
ByLayer
 62
  174
370
   -1
100
AcDbLine
 10
-720.1825187352149
 20
-751.7489268849815
 11
-705.1825187352149
 21
-751.7489268849815
  0
ARC
  5
8E
100
AcDbEntity
  8
0
  6
ByLayer
 62
  174
370
   -1
100
AcDbCircle
 10
-720.1825187352149
 20
-748.7489268849815
 40
3
100
AcDbArc
 50
90
 51
-90
  0
ARC
  5
8F
100
AcDbEntity
  8
0
  6
ByLayer
 62
  174
370
   -1
100
AcDbCircle
 10
-705.1460149881717
 20
-848.7489202223635
 40
3
100
AcDbArc
 50
-90
 51
90
  0
LINE
  5
90
100
AcDbEntity
  8
0
  6
ByLayer
 62
  174
370
   -1
100
AcDbLine
 10
-720.1460149881717
 20
-851.7489202223635
 11
-705.1460149881717
 21
-851.7489202223635
  0
ARC
  5
91
100
AcDbEntity
  8
0
  6
ByLayer
 62
  174
370
   -1
100
AcDbCircle
 10
-720.1460149881717
 20
-848.7489202223635
 40
3
100
AcDbArc
 50
90
 51
-90
  0
ARC
  5
92
100
AcDbEntity
  8
0
  6
ByLayer
 62
  174
370
   -1
100
AcDbCircle
 10
-705.1095112411285
 20
-948.7489135597457
 40
3
100
AcDbArc
 50
-90
 51
90
  0
LINE
  5
93
100
AcDbEntity
  8
0
  6
ByLayer
 62
  174
370
   -1
100
AcDbLine
 10
-720.1095112411285
 20
-951.7489135597457
 11
-705.1095112411285
 21
-951.7489135597457
  0
ARC
  5
94
100
AcDbEntity
  8
0
  6
ByLayer
 62
  174
370
   -1
100
AcDbCircle
 10
-720.1095112411285
 20
-948.7489135597457
 40
3
100
AcDbArc
 50
90
 51
-90
  0
ARC
  5
95
100
AcDbEntity
  8
0
  6
ByLayer
 62
  174
370
   -1
100
AcDbCircle
 10
-705.0730074940853
 20
-1048.748906897128
 40
3
100
AcDbArc
 50
-90
 51
90
  0
LINE
  5
96
100
AcDbEntity
  8
0
  6
ByLayer
 62
  174
370
   -1
100
AcDbLine
 10
-720.0730074940853
 20
-1051.748906897128
 11
-705.0730074940853
 21
-1051.748906897128
  0
ARC
  5
97
100
AcDbEntity
  8
0
  6
ByLayer
 62
  174
370
   -1
100
AcDbCircle
 10
-720.0730074940853
 20
-1048.748906897128
 40
3
100
AcDbArc
 50
90
 51
-90
  0
ENDBLK
  5
4F
330
4D
100
AcDbEntity
  8
0
100
AcDbBlockEnd
  0
ENDSEC
  0
SECTION
  2
ENTITIES
  0
CIRCLE
  5
98
100
AcDbEntity
  8
0
  6
ByLayer
 62
    7
370
   -1
100
AcDbCircle
 10
150.169456796954
 20
618.3877265433173
 40
3.5
  0
CIRCLE
  5
99
100
AcDbEntity
  8
0
  6
ByLayer
 62
    7
370
   -1
100
AcDbCircle
 10
70.16945679695395
 20
618.3877265433173
 40
3.5
  0
CIRCLE
  5
9A
100
AcDbEntity
  8
0
  6
ByLayer
 62
    7
370
   -1
100
AcDbCircle
 10
1881.165031084519
 20
618.3877265433174
 40
3.5
  0
CIRCLE
  5
9B
100
AcDbEntity
  8
0
  6
ByLayer
 62
    7
370
   -1
100
AcDbCircle
 10
150.169456796954
 20
793.3877265433172
 40
3.5
  0
CIRCLE
  5
9C
100
AcDbEntity
  8
0
  6
ByLayer
 62
    7
370
   -1
100
AcDbCircle
 10
1801.165031084519
 20
618.3877265433174
 40
3.5
  0
CIRCLE
  5
9D
100
AcDbEntity
  8
0
  6
ByLayer
 62
    7
370
   -1
100
AcDbCircle
 10
1881.165031084519
 20
793.3877265433174
 40
3.5
  0
CIRCLE
  5
9E
100
AcDbEntity
  8
0
  6
ByLayer
 62
    7
370
   -1
100
AcDbCircle
 10
1801.165031084519
 20
793.3877265433174
 40
3.5
  0
LINE
  5
9F
100
AcDbEntity
  8
0
  6
ByLayer
 62
    7
370
   -1
100
AcDbLine
 10
137.6694567969544
 20
800.8877265433175
 11
22.66945679695441
 21
747.2623458572821
  0
ARC
  5
A0
100
AcDbEntity
  8
0
  6
ByLayer
 62
    7
370
   -1
100
AcDbCircle
 10
1423.167243940737
 20
795.8877265433174
 40
5
100
AcDbArc
 50
360
 51
90
  0
ARC
  5
A1
100
AcDbEntity
  8
0
  6
ByLayer
 62
    7
370
   -1
100
AcDbCircle
 10
1788.665031084519
 20
795.8877265433176
 40
5
100
AcDbArc
 50
90
 51
180.0000000000026
  0
ARC
  5
A2
100
AcDbEntity
  8
0
  6
ByLayer
 62
    7
370
   -1
100
AcDbCircle
 10
2001.41392465641
 20
795.8877265433176
 40
5
100
AcDbArc
 50
360
 51
90
  0
ARC
  5
A3
100
AcDbEntity
  8
0
  6
ByLayer
 62
    7
370
   -1
100
AcDbCircle
 10
2001.41392465641
 20
5.887726543317324
 40
5
100
AcDbArc
 50
270
 51
359.9999999999997
  0
ARC
  5
A4
100
AcDbEntity
  8
0
  6
ByLayer
 62
    7
370
   -1
100
AcDbCircle
 10
4.920563225063733
 20
5.887726543317009
 40
5
100
AcDbArc
 50
180.0000000000016
 51
270
  0
ARC
  5
A5
100
AcDbEntity
  8
0
  6
ByLayer
 62
    7
370
   -1
100
AcDbCircle
 10
1234.418303730519
 20
706.1432527726188
 40
3
100
AcDbArc
 50
180
 51
360
  0
LINE
  5
A6
100
AcDbEntity
  8
0
  6
ByLayer
 62
    7
370
   -1
100
AcDbLine
 10
1231.418303730519
 20
721.1432527726188
 11
1231.418303730519
 21
706.1432527726188
  0
ARC
  5
A7
100
AcDbEntity
  8
0
  6
ByLayer
 62
    7
370
   -1
100
AcDbCircle
 10
1234.418303730519
 20
721.1432527726188
 40
3
100
AcDbArc
 50
360
 51
180
  0
ARC
  5
A8
100
AcDbEntity
  8
0
  6
ByLayer
 62
    7
370
   -1
100
AcDbCircle
 10
634.4183437062272
 20
705.92423029036
 40
3
100
AcDbArc
 50
180
 51
360
  0
LINE
  5
A9
100
AcDbEntity
  8
0
  6
ByLayer
 62
    7
370
   -1
100
AcDbLine
 10
631.4183437062272
 20
720.92423029036
 11
631.4183437062272
 21
705.92423029036
  0
ARC
  5
AA
100
AcDbEntity
  8
0
  6
ByLayer
 62
    7
370
   -1
100
AcDbCircle
 10
634.4183437062272
 20
720.92423029036
 40
3
100
AcDbArc
 50
360
 51
180
  0
ARC
  5
AB
100
AcDbEntity
  8
0
  6
ByLayer
 62
    7
370
   -1
100
AcDbCircle
 10
1134.418310393137
 20
706.1067490255755
 40
3
100
AcDbArc
 50
180
 51
360
  0
LINE
  5
AC
100
AcDbEntity
  8
0
  6
ByLayer
 62
    7
370
   -1
100
AcDbLine
 10
1131.418310393137
 20
721.1067490255755
 11
1131.418310393137
 21
706.1067490255755
  0
ARC
  5
AD
100
AcDbEntity
  8
0
  6
ByLayer
 62
    7
370
   -1
100
AcDbCircle
 10
1134.418310393137
 20
721.1067490255755
 40
3
100
AcDbArc
 50
360
 51
180
  0
ARC
  5
AE
100
AcDbEntity
  8
0
  6
ByLayer
 62
    7
370
   -1
100
AcDbCircle
 10
534.418350368845
 20
705.8877265433167
 40
3
100
AcDbArc
 50
180
 51
360
  0
LINE
  5
AF
100
AcDbEntity
  8
0
  6
ByLayer
 62
    7
370
   -1
100
AcDbLine
 10
531.418350368845
 20
720.8877265433167
 11
531.418350368845
 21
705.8877265433167
  0
ARC
  5
B0
100
AcDbEntity
  8
0
  6
ByLayer
 62
    7
370
   -1
100
AcDbCircle
 10
534.418350368845
 20
720.8877265433167
 40
3
100
AcDbArc
 50
360
 51
180
  0
ARC
  5
B1
100
AcDbEntity
  8
0
  6
ByLayer
 62
    7
370
   -1
100
AcDbCircle
 10
1034.418317055755
 20
706.0702452785324
 40
3
100
AcDbArc
 50
180
 51
360
  0
LINE
  5
B2
100
AcDbEntity
  8
0
  6
ByLayer
 62
    7
370
   -1
100
AcDbLine
 10
1031.418317055755
 20
721.0702452785324
 11
1031.418317055755
 21
706.0702452785324
  0
ARC
  5
B3
100
AcDbEntity
  8
0
  6
ByLayer
 62
    7
370
   -1
100
AcDbCircle
 10
1034.418317055755
 20
721.0702452785324
 40
3
100
AcDbArc
 50
360
 51
180
  0
ARC
  5
B4
100
AcDbEntity
  8
0
  6
ByLayer
 62
    7
370
   -1
100
AcDbCircle
 10
934.4183237183732
 20
706.0337415314893
 40
3
100
AcDbArc
 50
180
 51
360
  0
LINE
  5
B5
100
AcDbEntity
  8
0
  6
ByLayer
 62
    7
370
   -1
100
AcDbLine
 10
931.4183237183732
 20
721.0337415314893
 11
931.4183237183732
 21
706.0337415314893
  0
ARC
  5
B6
100
AcDbEntity
  8
0
  6
ByLayer
 62
    7
370
   -1
100
AcDbCircle
 10
934.4183237183732
 20
721.0337415314893
 40
3
100
AcDbArc
 50
360
 51
180
  0
ARC
  5
B7
100
AcDbEntity
  8
0
  6
ByLayer
 62
    7
370
   -1
100
AcDbCircle
 10
834.4183303809911
 20
705.9972377844462
 40
3
100
AcDbArc
 50
180
 51
360
  0
LINE
  5
B8
100
AcDbEntity
  8
0
  6
ByLayer
 62
    7
370
   -1
100
AcDbLine
 10
831.4183303809911
 20
720.9972377844462
 11
831.4183303809911
 21
705.9972377844462
  0
ARC
  5
B9
100
AcDbEntity
  8
0
  6
ByLayer
 62
    7
370
   -1
100
AcDbCircle
 10
834.4183303809911
 20
720.9972377844462
 40
3
100
AcDbArc
 50
360
 51
180
  0
ARC
  5
BA
100
AcDbEntity
  8
0
  6
ByLayer
 62
    7
370
   -1
100
AcDbCircle
 10
734.4183370436092
 20
705.9607340374029
 40
3
100
AcDbArc
 50
180
 51
360
  0
LINE
  5
BB
100
AcDbEntity
  8
0
  6
ByLayer
 62
    7
370
   -1
100
AcDbLine
 10
731.4183370436092
 20
720.9607340374029
 11
731.4183370436092
 21
705.9607340374029
  0
ARC
  5
BC
100
AcDbEntity
  8
0
  6
ByLayer
 62
    7
370
   -1
100
AcDbCircle
 10
734.4183370436092
 20
720.9607340374029
 40
3
100
AcDbArc
 50
360
 51
180
  0
LINE
  5
BD
100
AcDbEntity
  8
0
  6
ByLayer
 62
    7
370
   -1
100
AcDbLine
 10
137.6694567969544
 20
800.8877265433175
 11
534.418350368845
 21
800.8877265433167
  0
LINE
  5
BE
100
AcDbEntity
  8
0
  6
ByLayer
 62
    7
370
   -1
100
AcDbLine
 10
834.4183503688449
 20
800.8877265433172
 11
1423.167243940737
 21
800.8877265433174
  0
ARC
  5
BF
100
AcDbEntity
  8
0
  6
ByLayer
 62
    7
370
   -1
100
AcDbCircle
 10
1423.167243940737
 20
795.8877265433175
 40
4.999999999999858
100
AcDbArc
 50
359.9999999999987
 51
89.99999999999868
  0
LINE
  5
C0
100
AcDbEntity
  8
0
  6
ByLayer
 62
    7
370
   -1
100
AcDbLine
 10
1428.167243940737
 20
795.8877265433174
 11
1428.167243940737
 21
790.8877265433175
  0
LINE
  5
C1
100
AcDbEntity
  8
0
  6
ByLayer
 62
    7
370
   -1
100
AcDbLine
 10
1428.167243940737
 20
790.8877265433175
 11
1783.665031084519
 21
790.8877265433174
  0
LINE
  5
C2
100
AcDbEntity
  8
0
  6
ByLayer
 62
    7
370
   -1
100
AcDbLine
 10
1783.665031084519
 20
790.8877265433174
 11
1783.665031084519
 21
795.8877265433176
  0
ARC
  5
C3
100
AcDbEntity
  8
0
  6
ByLayer
 62
    7
370
   -1
100
AcDbCircle
 10
1788.665031084519
 20
795.8877265433176
 40
5.000000000000001
100
AcDbArc
 50
90
 51
180
  0
LINE
  5
C4
100
AcDbEntity
  8
0
  6
ByLayer
 62
    7
370
   -1
100
AcDbLine
 10
1788.665031084519
 20
800.8877265433176
 11
2001.41392465641
 21
800.8877265433176
  0
ARC
  5
C5
100
AcDbEntity
  8
0
  6
ByLayer
 62
    7
370
   -1
100
AcDbCircle
 10
2001.41392465641
 20
795.8877265433176
 40
5.000000000000044
100
AcDbArc
 50
360
 51
90.0000000000003
  0
LINE
  5
C6
100
AcDbEntity
  8
0
  6
ByLayer
 62
    7
370
   -1
100
AcDbLine
 10
2006.41392465641
 20
795.8877265433176
 11
2006.41392465641
 21
5.887726543317323
  0
ARC
  5
C7
100
AcDbEntity
  8
0
  6
ByLayer
 62
    7
370
   -1
100
AcDbCircle
 10
2001.41392465641
 20
5.887726543317552
 40
4.999999999999886
100
AcDbArc
 50
269.9999999999991
 51
359.9999999999991
  0
LINE
  5
C8
100
AcDbEntity
  8
0
  6
ByLayer
 62
    7
370
   -1
100
AcDbLine
 10
2001.41392465641
 20
0.8877265433175516
 11
4.920563225063733
 21
0.887726543317009
  0
ARC
  5
C9
100
AcDbEntity
  8
0
  6
ByLayer
 62
    7
370
   -1
100
AcDbCircle
 10
4.920563225063733
 20
5.887726543317009
 40
4.999999999999939
100
AcDbArc
 50
180.0000000000008
 51
270
  0
LINE
  5
CA
100
AcDbEntity
  8
0
  6
ByLayer
 62
    7
370
   -1
100
AcDbLine
 10
-0.07943677493626744
 20
5.887726543316782
 11
-0.07943677493649481
 21
745.3971152247243
  0
LINE
  5
CB
100
AcDbEntity
  8
0
  6
ByLayer
 62
    7
370
   -1
100
AcDbLine
 10
-0.07943677493649481
 20
745.3971152247243
 11
19.9205632250635
 21
745.3971152247243
  0
LINE
  5
CC
100
AcDbEntity
  8
0
  6
ByLayer
 62
    7
370
   -1
100
AcDbLine
 10
19.9205632250635
 20
745.3971152247243
 11
22.66945679695441
 21
747.2623458572821
  0
LINE
  5
CD
100
AcDbEntity
  8
0
  6
ByLayer
 62
    7
370
   -1
100
AcDbLine
 10
21.2950100110093
 20
745.9434286285239
 11
21.2950100110093
 21
734.8346672529647
  0
LINE
  5
CE
100
AcDbEntity
  8
0
  6
ByLayer
 62
    7
370
   -1
100
AcDbLine
 10
21.2950100110093
 20
0.8877265433170143
 11
21.2950100110093
 21
13.20745082570375
  0
LINE
  5
CF
100
AcDbEntity
  8
0
  6
ByLayer
 62
    7
370
   -1
100
AcDbLine
 10
1363.167243940737
 20
737.8877265433175
 11
1363.167243940737
 21
734.8877265433175
  0
LINE
  5
D0
100
AcDbEntity
  8
0
  6
ByLayer
 62
    7
370
   -1
100
AcDbLine
 10
1363.167243940737
 20
734.8877265433175
 11
1439.916137512628
 21
734.8877265433175
  0
LINE
  5
D1
100
AcDbEntity
  8
0
  6
ByLayer
 62
    7
370
   -1
100
AcDbLine
 10
1439.916137512628
 20
734.8877265433175
 11
1439.916137512628
 21
737.8877265433175
  0
LINE
  5
D2
100
AcDbEntity
  8
0
  6
ByLayer
 62
    7
370
   -1
100
AcDbLine
 10
1439.916137512628
 20
737.8877265433175
 11
1363.167243940737
 21
737.8877265433175
  0
LINE
  5
D3
100
AcDbEntity
  8
0
  6
ByLayer
 62
    7
370
   -1
100
AcDbLine
 10
504.4183503688456
 20
100.8877265433167
 11
509.4183503688453
 21
100.8877265433167
  0
LINE
  5
D4
100
AcDbEntity
  8
0
  6
ByLayer
 62
    7
370
   -1
100
AcDbLine
 10
509.4183503688453
 20
100.8877265433167
 11
509.4183503688456
 21
30.88772654331669
  0
LINE
  5
D5
100
AcDbEntity
  8
0
  6
ByLayer
 62
    7
370
   -1
100
AcDbLine
 10
509.4183503688456
 20
30.88772654331669
 11
504.4183503688456
 21
30.88772654331669
  0
LINE
  5
D6
100
AcDbEntity
  8
0
  6
ByLayer
 62
    7
370
   -1
100
AcDbLine
 10
504.4183503688456
 20
30.88772654331669
 11
504.4183503688456
 21
100.8877265433167
  0
LINE
  5
D7
100
AcDbEntity
  8
0
  6
ByLayer
 62
    7
370
   -1
100
AcDbLine
 10
904.4183503689045
 20
100.8877265555868
 11
909.4183503689044
 21
100.8877265555868
  0
LINE
  5
D8
100
AcDbEntity
  8
0
  6
ByLayer
 62
    7
370
   -1
100
AcDbLine
 10
909.4183503689044
 20
100.8877265555868
 11
909.4183503689046
 21
30.88772655558684
  0
LINE
  5
D9
100
AcDbEntity
  8
0
  6
ByLayer
 62
    7
370
   -1
100
AcDbLine
 10
909.4183503689046
 20
30.88772655558684
 11
904.4183503689046
 21
30.88772655558684
  0
LINE
  5
DA
100
AcDbEntity
  8
0
  6
ByLayer
 62
    7
370
   -1
100
AcDbLine
 10
904.4183503689046
 20
30.88772655558684
 11
904.4183503689045
 21
100.8877265555868
  0
LINE
  5
DB
100
AcDbEntity
  8
0
  6
ByLayer
 62
    7
370
   -1
100
AcDbLine
 10
1445.043020323752
 20
100.8877399593572
 11
1450.043020323752
 21
100.8877399593572
  0
LINE
  5
DC
100
AcDbEntity
  8
0
  6
ByLayer
 62
    7
370
   -1
100
AcDbLine
 10
1450.043020323752
 20
100.8877399593572
 11
1450.043020323752
 21
30.88773995935722
  0
LINE
  5
DD
100
AcDbEntity
  8
0
  6
ByLayer
 62
    7
370
   -1
100
AcDbLine
 10
1450.043020323752
 20
30.88773995935722
 11
1445.043020323752
 21
30.88773995935722
  0
LINE
  5
DE
100
AcDbEntity
  8
0
  6
ByLayer
 62
    7
370
   -1
100
AcDbLine
 10
1445.043020323752
 20
30.88773995935722
 11
1445.043020323752
 21
100.8877399593572
  0
LINE
  5
DF
100
AcDbEntity
  8
0
  6
ByLayer
 62
    7
370
   -1
100
AcDbLine
 10
1604.916137512627
 20
700.8877265433174
 11
1609.916137512627
 21
700.8877265433174
  0
LINE
  5
E0
100
AcDbEntity
  8
0
  6
ByLayer
 62
    7
370
   -1
100
AcDbLine
 10
1609.916137512627
 20
700.8877265433174
 11
1609.916137512627
 21
630.8877265433174
  0
LINE
  5
E1
100
AcDbEntity
  8
0
  6
ByLayer
 62
    7
370
   -1
100
AcDbLine
 10
1609.916137512627
 20
630.8877265433174
 11
1604.916137512627
 21
630.8877265433174
  0
LINE
  5
E2
100
AcDbEntity
  8
0
  6
ByLayer
 62
    7
370
   -1
100
AcDbLine
 10
1604.916137512627
 20
630.8877265433174
 11
1604.916137512627
 21
700.8877265433174
  0
LINE
  5
E3
100
AcDbEntity
  8
0
  6
ByLayer
 62
    7
370
   -1
100
AcDbLine
 10
1444.916137512627
 20
700.8877265433173
 11
1449.916137512627
 21
700.8877265433173
  0
LINE
  5
E4
100
AcDbEntity
  8
0
  6
ByLayer
 62
    7
370
   -1
100
AcDbLine
 10
1449.916137512627
 20
700.8877265433173
 11
1449.916137512627
 21
630.8877265433173
  0
LINE
  5
E5
100
AcDbEntity
  8
0
  6
ByLayer
 62
    7
370
   -1
100
AcDbLine
 10
1449.916137512627
 20
630.8877265433173
 11
1444.916137512627
 21
630.8877265433173
  0
LINE
  5
E6
100
AcDbEntity
  8
0
  6
ByLayer
 62
    7
370
   -1
100
AcDbLine
 10
1444.916137512627
 20
630.8877265433173
 11
1444.916137512627
 21
700.8877265433173
  0
LINE
  5
E7
100
AcDbEntity
  8
0
  6
ByLayer
 62
    7
370
   -1
100
AcDbLine
 10
1605.043020323752
 20
100.8877399593572
 11
1610.043020323752
 21
100.8877399593572
  0
LINE
  5
E8
100
AcDbEntity
  8
0
  6
ByLayer
 62
    7
370
   -1
100
AcDbLine
 10
1610.043020323752
 20
100.8877399593572
 11
1610.043020323752
 21
30.88773995935719
  0
LINE
  5
E9
100
AcDbEntity
  8
0
  6
ByLayer
 62
    7
370
   -1
100
AcDbLine
 10
1610.043020323752
 20
30.88773995935719
 11
1605.043020323752
 21
30.88773995935719
  0
LINE
  5
EA
100
AcDbEntity
  8
0
  6
ByLayer
 62
    7
370
   -1
100
AcDbLine
 10
1605.043020323752
 20
30.88773995935719
 11
1605.043020323752
 21
100.8877399593572
  0
LINE
  5
EB
100
AcDbEntity
  8
0
  6
ByLayer
 62
    7
370
   -1
100
AcDbLine
 10
504.4183503688451
 20
700.8877265433167
 11
509.4183503688451
 21
700.8877265433167
  0
LINE
  5
EC
100
AcDbEntity
  8
0
  6
ByLayer
 62
    7
370
   -1
100
AcDbLine
 10
509.4183503688451
 20
700.8877265433167
 11
509.4183503688451
 21
630.8877265433167
  0
LINE
  5
ED
100
AcDbEntity
  8
0
  6
ByLayer
 62
    7
370
   -1
100
AcDbLine
 10
509.4183503688451
 20
630.8877265433167
 11
504.4183503688451
 21
630.8877265433167
  0
LINE
  5
EE
100
AcDbEntity
  8
0
  6
ByLayer
 62
    7
370
   -1
100
AcDbLine
 10
504.4183503688451
 20
630.8877265433167
 11
504.4183503688451
 21
700.8877265433167
  0
LINE
  5
EF
100
AcDbEntity
  8
0
  6
ByLayer
 62
    7
370
   -1
100
AcDbLine
 10
904.418350368904
 20
630.8877265555868
 11
904.418350368904
 21
700.8877265555868
  0
LINE
  5
F0
100
AcDbEntity
  8
0
  6
ByLayer
 62
    7
370
   -1
100
AcDbLine
 10
904.418350368904
 20
700.8877265555868
 11
899.418350368904
 21
700.8877265555868
  0
LINE
  5
F1
100
AcDbEntity
  8
0
  6
ByLayer
 62
    7
370
   -1
100
AcDbLine
 10
899.418350368904
 20
700.8877265555868
 11
899.418350368904
 21
630.8877265555868
  0
LINE
  5
F2
100
AcDbEntity
  8
0
  6
ByLayer
 62
    7
370
   -1
100
AcDbLine
 10
899.418350368904
 20
630.8877265555868
 11
904.418350368904
 21
630.8877265555868
  0
LINE
  5
F3
100
AcDbEntity
  8
0
  6
ByLayer
 62
    7
370
   -1
100
AcDbLine
 10
387.6694567969546
 20
734.8877265433172
 11
387.6694567969546
 21
737.8877265433174
  0
LINE
  5
F4
100
AcDbEntity
  8
0
  6
ByLayer
 62
    7
370
   -1
100
AcDbLine
 10
387.6694567969546
 20
737.8877265433174
 11
317.6694567969546
 21
737.8877265433172
  0
LINE
  5
F5
100
AcDbEntity
  8
0
  6
ByLayer
 62
    7
370
   -1
100
AcDbLine
 10
317.6694567969546
 20
737.8877265433172
 11
317.6694567969546
 21
734.8877265433172
  0
LINE
  5
F6
100
AcDbEntity
  8
0
  6
ByLayer
 62
    7
370
   -1
100
AcDbLine
 10
317.6694567969546
 20
734.8877265433172
 11
387.6694567969546
 21
734.8877265433172
  0
LINE
  5
F7
100
AcDbEntity
  8
0
  6
ByLayer
 62
    7
370
   -1
100
AcDbLine
 10
140.169456796954
 20
608.3877265433173
 11
140.169456796954
 21
610.8877265433173
  0
LINE
  5
F8
100
AcDbEntity
  8
0
  6
ByLayer
 62
    7
370
   -1
100
AcDbLine
 10
140.169456796954
 20
610.8877265433173
 11
80.16945679695395
 21
610.8877265433171
  0
LINE
  5
F9
100
AcDbEntity
  8
0
  6
ByLayer
 62
    7
370
   -1
100
AcDbLine
 10
80.16945679695395
 20
610.8877265433171
 11
80.16945679695395
 21
608.3877265433171
  0
LINE
  5
FA
100
AcDbEntity
  8
0
  6
ByLayer
 62
    7
370
   -1
100
AcDbLine
 10
80.16945679695395
 20
608.3877265433171
 11
140.169456796954
 21
608.3877265433173
  0
LINE
  5
FB
100
AcDbEntity
  8
0
  6
ByLayer
 62
    7
370
   -1
100
AcDbLine
 10
1811.165031084519
 20
610.8877265433174
 11
1871.165031084519
 21
610.8877265433174
  0
LINE
  5
FC
100
AcDbEntity
  8
0
  6
ByLayer
 62
    7
370
   -1
100
AcDbLine
 10
1871.165031084519
 20
610.8877265433174
 11
1871.165031084519
 21
608.3877265433174
  0
LINE
  5
FD
100
AcDbEntity
  8
0
  6
ByLayer
 62
    7
370
   -1
100
AcDbLine
 10
1871.165031084519
 20
608.3877265433174
 11
1811.165031084519
 21
608.3877265433174
  0
LINE
  5
FE
100
AcDbEntity
  8
0
  6
ByLayer
 62
    7
370
   -1
100
AcDbLine
 10
1811.165031084519
 20
608.3877265433174
 11
1811.165031084519
 21
610.8877265433174
  0
LINE
  5
FF
100
AcDbEntity
  8
0
  6
ByLayer
 62
    7
370
   -1
100
AcDbLine
 10
894.4183503688449
 20
740.3877265433168
 11
894.4183503688449
 21
742.8877265433171
  0
LINE
  5
100
100
AcDbEntity
  8
0
  6
ByLayer
 62
    7
370
   -1
100
AcDbLine
 10
894.4183503688449
 20
742.8877265433171
 11
854.4183503688449
 21
742.8877265433169
  0
LINE
  5
101
100
AcDbEntity
  8
0
  6
ByLayer
 62
    7
370
   -1
100
AcDbLine
 10
854.4183503688449
 20
742.8877265433169
 11
854.4183503688449
 21
740.3877265433169
  0
LINE
  5
102
100
AcDbEntity
  8
0
  6
ByLayer
 62
    7
370
   -1
100
AcDbLine
 10
854.4183503688449
 20
740.3877265433169
 11
894.4183503688449
 21
740.3877265433168
  0
LINE
  5
103
100
AcDbEntity
  8
0
  6
ByLayer
 62
    7
370
   -1
100
AcDbLine
 10
1044.418350368845
 20
742.8877265433171
 11
1084.418350368845
 21
742.8877265433171
  0
LINE
  5
104
100
AcDbEntity
  8
0
  6
ByLayer
 62
    7
370
   -1
100
AcDbLine
 10
1084.418350368845
 20
742.8877265433171
 11
1084.418350368845
 21
740.3877265433171
  0
LINE
  5
105
100
AcDbEntity
  8
0
  6
ByLayer
 62
    7
370
   -1
100
AcDbLine
 10
1084.418350368845
 20
740.3877265433171
 11
1044.418350368845
 21
740.3877265433171
  0
LINE
  5
106
100
AcDbEntity
  8
0
  6
ByLayer
 62
    7
370
   -1
100
AcDbLine
 10
1044.418350368845
 20
740.3877265433171
 11
1044.418350368845
 21
742.8877265433171
  0
LINE
  5
107
100
AcDbEntity
  8
0
  6
ByLayer
 62
    7
370
   -1
100
AcDbLine
 10
1237.418303730519
 20
721.1432527726188
 11
1237.418303730519
 21
706.1432527726188
  0
ARC
  5
108
100
AcDbEntity
  8
0
  6
ByLayer
 62
    7
370
   -1
100
AcDbCircle
 10
1234.418303730519
 20
706.1432527726188
 40
3
100
AcDbArc
 50
180
 51
360
  0
LINE
  5
109
100
AcDbEntity
  8
0
  6
ByLayer
 62
    7
370
   -1
100
AcDbLine
 10
1231.418303730519
 20
706.1432527726188
 11
1231.418303730519
 21
721.1432527726188
  0
ARC
  5
10A
100
AcDbEntity
  8
0
  6
ByLayer
 62
    7
370
   -1
100
AcDbCircle
 10
1234.418303730519
 20
721.1432527726188
 40
3
100
AcDbArc
 50
360
 51
180
  0
LINE
  5
10B
100
AcDbEntity
  8
0
  6
ByLayer
 62
    7
370
   -1
100
AcDbLine
 10
637.4183437062272
 20
720.92423029036
 11
637.4183437062272
 21
705.92423029036
  0
ARC
  5
10C
100
AcDbEntity
  8
0
  6
ByLayer
 62
    7
370
   -1
100
AcDbCircle
 10
634.4183437062272
 20
705.92423029036
 40
3
100
AcDbArc
 50
180
 51
360
  0
LINE
  5
10D
100
AcDbEntity
  8
0
  6
ByLayer
 62
    7
370
   -1
100
AcDbLine
 10
631.4183437062272
 20
705.92423029036
 11
631.4183437062272
 21
720.92423029036
  0
ARC
  5
10E
100
AcDbEntity
  8
0
  6
ByLayer
 62
    7
370
   -1
100
AcDbCircle
 10
634.4183437062272
 20
720.92423029036
 40
3
100
AcDbArc
 50
360
 51
180
  0
LINE
  5
10F
100
AcDbEntity
  8
0
  6
ByLayer
 62
    7
370
   -1
100
AcDbLine
 10
1137.418310393137
 20
721.1067490255755
 11
1137.418310393137
 21
706.1067490255755
  0
ARC
  5
110
100
AcDbEntity
  8
0
  6
ByLayer
 62
    7
370
   -1
100
AcDbCircle
 10
1134.418310393137
 20
706.1067490255755
 40
3
100
AcDbArc
 50
180
 51
360
  0
LINE
  5
111
100
AcDbEntity
  8
0
  6
ByLayer
 62
    7
370
   -1
100
AcDbLine
 10
1131.418310393137
 20
706.1067490255755
 11
1131.418310393137
 21
721.1067490255755
  0
ARC
  5
112
100
AcDbEntity
  8
0
  6
ByLayer
 62
    7
370
   -1
100
AcDbCircle
 10
1134.418310393137
 20
721.1067490255755
 40
3
100
AcDbArc
 50
360
 51
180
  0
LINE
  5
113
100
AcDbEntity
  8
0
  6
ByLayer
 62
    7
370
   -1
100
AcDbLine
 10
537.418350368845
 20
720.8877265433167
 11
537.418350368845
 21
705.8877265433167
  0
ARC
  5
114
100
AcDbEntity
  8
0
  6
ByLayer
 62
    7
370
   -1
100
AcDbCircle
 10
534.418350368845
 20
705.8877265433167
 40
3
100
AcDbArc
 50
180
 51
360
  0
LINE
  5
115
100
AcDbEntity
  8
0
  6
ByLayer
 62
    7
370
   -1
100
AcDbLine
 10
531.418350368845
 20
705.8877265433167
 11
531.418350368845
 21
720.8877265433167
  0
ARC
  5
116
100
AcDbEntity
  8
0
  6
ByLayer
 62
    7
370
   -1
100
AcDbCircle
 10
534.418350368845
 20
720.8877265433167
 40
3
100
AcDbArc
 50
360
 51
180
  0
LINE
  5
117
100
AcDbEntity
  8
0
  6
ByLayer
 62
    7
370
   -1
100
AcDbLine
 10
1037.418317055755
 20
721.0702452785324
 11
1037.418317055755
 21
706.0702452785324
  0
ARC
  5
118
100
AcDbEntity
  8
0
  6
ByLayer
 62
    7
370
   -1
100
AcDbCircle
 10
1034.418317055755
 20
706.0702452785324
 40
3
100
AcDbArc
 50
180
 51
360
  0
LINE
  5
119
100
AcDbEntity
  8
0
  6
ByLayer
 62
    7
370
   -1
100
AcDbLine
 10
1031.418317055755
 20
706.0702452785324
 11
1031.418317055755
 21
721.0702452785322
  0
ARC
  5
11A
100
AcDbEntity
  8
0
  6
ByLayer
 62
    7
370
   -1
100
AcDbCircle
 10
1034.418317055755
 20
721.0702452785324
 40
3
100
AcDbArc
 50
360
 51
180.0000000000021
  0
LINE
  5
11B
100
AcDbEntity
  8
0
  6
ByLayer
 62
    7
370
   -1
100
AcDbLine
 10
937.4183237183732
 20
721.0337415314893
 11
937.4183237183732
 21
706.0337415314893
  0
ARC
  5
11C
100
AcDbEntity
  8
0
  6
ByLayer
 62
    7
370
   -1
100
AcDbCircle
 10
934.4183237183732
 20
706.0337415314893
 40
3
100
AcDbArc
 50
180
 51
360
  0
LINE
  5
11D
100
AcDbEntity
  8
0
  6
ByLayer
 62
    7
370
   -1
100
AcDbLine
 10
931.4183237183732
 20
706.0337415314893
 11
931.4183237183732
 21
721.0337415314893
  0
ARC
  5
11E
100
AcDbEntity
  8
0
  6
ByLayer
 62
    7
370
   -1
100
AcDbCircle
 10
934.4183237183732
 20
721.0337415314893
 40
3
100
AcDbArc
 50
360
 51
180
  0
LINE
  5
11F
100
AcDbEntity
  8
0
  6
ByLayer
 62
    7
370
   -1
100
AcDbLine
 10
837.4183303809911
 20
720.9972377844462
 11
837.4183303809911
 21
705.9972377844462
  0
ARC
  5
120
100
AcDbEntity
  8
0
  6
ByLayer
 62
    7
370
   -1
100
AcDbCircle
 10
834.4183303809911
 20
705.9972377844462
 40
3
100
AcDbArc
 50
180
 51
360
  0
LINE
  5
121
100
AcDbEntity
  8
0
  6
ByLayer
 62
    7
370
   -1
100
AcDbLine
 10
831.4183303809911
 20
705.9972377844462
 11
831.4183303809911
 21
720.9972377844462
  0
ARC
  5
122
100
AcDbEntity
  8
0
  6
ByLayer
 62
    7
370
   -1
100
AcDbCircle
 10
834.4183303809911
 20
720.9972377844462
 40
3
100
AcDbArc
 50
360
 51
180.0000000000021
  0
LINE
  5
123
100
AcDbEntity
  8
0
  6
ByLayer
 62
    7
370
   -1
100
AcDbLine
 10
737.4183370436092
 20
720.9607340374029
 11
737.4183370436092
 21
705.9607340374029
  0
ARC
  5
124
100
AcDbEntity
  8
0
  6
ByLayer
 62
    7
370
   -1
100
AcDbCircle
 10
734.4183370436092
 20
705.9607340374029
 40
3
100
AcDbArc
 50
180
 51
360
  0
LINE
  5
125
100
AcDbEntity
  8
0
  6
ByLayer
 62
    7
370
   -1
100
AcDbLine
 10
731.4183370436092
 20
705.9607340374029
 11
731.4183370436092
 21
720.9607340374029
  0
ARC
  5
126
100
AcDbEntity
  8
0
  6
ByLayer
 62
    7
370
   -1
100
AcDbCircle
 10
734.4183370436092
 20
720.9607340374029
 40
3
100
AcDbArc
 50
360
 51
180
  0
LINE
  5
127
100
AcDbEntity
  8
0
  6
ByLayer
 62
    7
370
   -1
100
AcDbLine
 10
474.0439035829
 20
800.8877265433173
 11
474.0439035829
 21
790.2602652177512
  0
LINE
  5
128
100
AcDbEntity
  8
0
  6
ByLayer
 62
    7
370
   -1
100
AcDbLine
 10
474.0439035829002
 20
0.8877265433171502
 11
474.0439035829002
 21
11.42011737215819
  0
LINE
  5
129
100
AcDbEntity
  8
0
  6
ByLayer
 62
    7
370
   -1
100
AcDbLine
 10
1276.792797154791
 20
800.8877265433173
 11
1276.792797154791
 21
790.0039314248062
  0
LINE
  5
12A
100
AcDbEntity
  8
0
  6
ByLayer
 62
    7
370
   -1
100
AcDbLine
 10
1276.792797154791
 20
0.8877265433173546
 11
1276.792797154791
 21
12.02508576355865
  0
LINE
  5
12B
100
AcDbEntity
  8
0
  6
ByLayer
 62
    7
370
   -1
100
AcDbLine
 10
1429.541690726682
 20
790.8877265433175
 11
1429.541690726682
 21
778.7745039990913
  0
LINE
  5
12C
100
AcDbEntity
  8
0
  6
ByLayer
 62
    7
370
   -1
100
AcDbLine
 10
1429.541690638526
 20
0.8877265433173962
 11
1429.541690726682
 21
11.93487506765791
  0
LINE
  5
12D
100
AcDbEntity
  8
0
  6
ByLayer
 62
    7
370
   -1
100
AcDbLine
 10
1632.290584298573
 20
790.8877265433175
 11
1632.290584298573
 21
779.4438673626735
  0
LINE
  5
12E
100
AcDbEntity
  8
0
  6
ByLayer
 62
    7
370
   -1
100
AcDbLine
 10
1632.290584298573
 20
0.8877265433173918
 11
1632.290584298573
 21
12.71970812199368
  0
LINE
  5
12F
100
AcDbEntity
  8
0
  6
ByLayer
 62
    7
370
   -1
100
AcDbLine
 10
1985
 20
801
 11
1985.039477870464
 21
787.3445201096536
  0
LINE
  5
130
100
AcDbEntity
  8
0
  6
ByLayer
 62
    7
370
   -1
100
AcDbLine
 10
1985.039477782308
 20
0.8877265433175472
 11
1985.039477870464
 21
18.31637969567089
  0
LINE
  5
131
100
AcDbEntity
  8
0
  6
ByLayer
 62
    7
370
   -1
100
AcDbLine
 10
834.4183503688449
 20
740.8877265433169
 11
534.418350368845
 21
740.8877265433167
  0
LINE
  5
132
100
AcDbEntity
  8
0
  6
ByLayer
 62
    7
370
   -1
100
AcDbLine
 10
834.4183503688449
 20
800.8877265433172
 11
834.4183503688449
 21
740.8877265433171
  0
LINE
  5
133
100
AcDbEntity
  8
0
  6
ByLayer
 62
    7
370
   -1
100
AcDbLine
 10
534.418350368845
 20
740.8877265433167
 11
534.418350368845
 21
800.8877265433172
  0
ENDSEC
  0
SECTION
  2
OBJECTS
  0
DICTIONARY
  5
C
330
0
100
AcDbDictionary
281
    1
  3
ACAD_GROUP
350
D
  0
DICTIONARY
  5
D
330
C
100
AcDbDictionary
281
    1
  0
ENDSEC
  0
EOF
